Song name
# A B C D E F G H I J K L M N O P Q R S T U V W X Y Z

Modern Baseball - Rock Bottom tab

-------------------------------------------------------------------------------
			     ROCK BOTTOM - Modern Baseball
-------------------------------------------------------------------------------

Tuning: Half-Step Down

Intro:
   A
eb|---------------------------------|
Bb|-2-2-2-2-2-2-2-2-2-2-2-2-2-x-x-x-|
Gb|-2-2-2-2-2-2-2-2-2-2-2-2-2-x-x-x-|
Db|-2-2-2-2-2-2-2-2-2-2-2-2-2-x-x-x-|
Ab|---------------------------------|
Eb|---------------------------------|

Verse:
   A                                  D               A
eb|---------------------------------|---------------------------------|
Bb|-2-2-2-2-2-2-2-2-2-2-2-2-2-2-2-2-|-2-2-2-2-2-2-2-2-2-2-2-2-2-2-2-2-|
Gb|-2-2-2-2-2-2-2-2-2-2-2-2-2-2-2-2-|-2-2-2-2-2-2-2-2-2-2-2-2-2-2-2-2-|    x2
Db|-2-2-2-2-2-2-2-2-2-2-2-2-2-2-2-2-|-0-0-0-0-0-0-0-0-2-2-2-2-2-2-2-2-|
Ab|---------------------------------|---------------------------------|
Eb|---------------------------------|---------------------------------|

Pre-Chorus:
   Bm               D
eb|-------------------------------------|
Bb|-3-3-3-3-3-3-3-3-2-2-2-2-2-----------|
Gb|-4-4-4-4-4-4-4-4-2-2-2-2-2-----------|
Db|-4-4-4-4-4-4-4-4-0-0-0-0-0-----------|
Ab|-2-2-2-2-2-2-2-2---------------------|
Eb|-------------------------------------|


Interlude:
eb|-----------------------------|--|---------------------------------------------------------|
Bb|-----------------------------|--|---------------------------------------------------------|
Gb|---------------------7-7-7-7-|x2|-----------------------------7--7--7-7-7-7-9--9--9-9-9-9-|
Db|-7--7--7-7-7-7-4--4--7-7-7-7-|--|-7--7--7-7-7-7-4--4--4-4-4-4-7--7--7-7-7-7-9--9--9-9-9-9-|
Ab|-7--7--7-7-7-7-4--4--5-5-5-5-|--|-7--7--7-7-7-7-4--4--4-4-4-4-5--5--5-5-5-5-7--7--7-7-7-7-|
Eb|-5--5--5-5-5-5-2--2----------|--|-5--5--5-5-5-5-2--2--2-2-2-2-----------------------------|
  |                                                                                          |
eb|-----------------------------|--|-----------------------------------9-9------7------------|
Bb|-----------------------------|--|-----------------------------5-/10-----1010---10-9-7-----|
Gb|----6--9-9-----------6-6-----|x2|----6--9-9-----------6-6-7-7-------------------------9---|
Db|-7---------7-7-9--7------7-7-|--|-7---------7-7-9--7--------------------------------------|
Ab|-----------------------------|--|---------------------------------------------------------|
Eb|-----------------------------|--|---------------------------------------------------------|

Verse:
eb|-----------------------------|--|---------------------------------------------------------|
Bb|-----------------------------|--|---------------------------------------------------------|
Gb|---------------------7-7-7-7-|x2|-----------------------------7--7--7-7-7-7-9--9--9-9-9-9-|
Db|-7--7--7-7-7-7-4--4--7-7-7-7-|--|-7--7--7-7-7-7-4--4--4-4-4-4-7--7--7-7-7-7-9--9--9-9-9-9-|
Ab|-7--7--7-7-7-7-4--4--5-5-5-5-|--|-7--7--7-7-7-7-4--4--4-4-4-4-5--5--5-5-5-5-7--7--7-7-7-7-|
Eb|-5--5--5-5-5-5-2--2----------|--|-5--5--5-5-5-5-2--2--2-2-2-2-----------------------------|
  |                                                                                          |
eb|-----------------------------|--|-----------------------------------9-9------7-------7----|
Bb|-----------------------------|--|-----------------------------5-/10-----1010---10--10-10--|
Gb|----6--9-9-----------6^(hb)--|x2|----6--9-9-----------6-6-7-7-----------------------------|
Db|-7---------7-7-9--7----------|--|-7---------7-7-9--7--------------------------------------|
Ab|-----------------------------|--|---------------------------------------------------------|
Eb|-----------------------------|--|---------------------------------------------------------|

eb|-----------------------------|--|---------------------------------------------------------|
Bb|-----------------------------|--|---------------------------------------------------------|
Gb|---------------------7-7-7-7-|x2|-----------------------------7--7--7-7-7-7-9--9--9-9-9-9-|
Db|-7--7--7-7-7-7-4--4--7-7-7-7-|--|-7--7--7-7-7-7-4--4--4-4-4-4-7--7--7-7-7-7-9--9--9-9-9-9-|
Ab|-7--7--7-7-7-7-4--4--5-5-5-5-|--|-7--7--7-7-7-7-4--4--4-4-4-4-5--5--5-5-5-5-7--7--7-7-7-7-|
Eb|-5--5--5-5-5-5-2--2----------|--|-5--5--5-5-5-5-2--2--2-2-2-2-----------------------------|
  |                                                                                          |
eb|-----------------------------|--|-----------------------------------9-9------7-----9^(hbr)|
Bb|-----------------------------|--|-----------------------------5-/10-----1010---10---------|
Gb|----6--9-9-----------6^(hbr)-|x2|----6--9-9-----------6-6-7-7-----------------------------|
Db|-7---------7-7-9--7----------|--|-7---------7-7-9--7--------------------------------------|
Ab|-----------------------------|--|---------------------------------------------------------|
Eb|-----------------------------|--|---------------------------------------------------------|

Pre-Chorus:
eb|-------------------------------------------------------------------|
Bb|-------------------------------------------------------------------|
Gb|---------------------------------7-7-7-7-7-7-7-7-7-7-7-7-7-7-7-7-7-|
Db|-9---9---9---9---9---9---9---9---7-7-7-7-7-7-7-7-7-7-7-7-7-7-7-7-7-|
Ab|-9---9---9---9---9---9---9---9---5-5-5-5-5-5-5-5-5-5-5-5-5-5-5-5-5-|
Eb|-7---7---7---7---7---7---7---7-------------------------------------|
  |                                                                   |
eb|-9h109h109h109h109h109h109h109h1012--12--12--12--12--12--12--12----|
Bb|-------------------------------------------------------------------|
Gb|-------------------------------------------------------------------|
Db|-------------------------------------------------------------------|
Ab|-------------------------------------------------------------------|
Eb|-------------------------------------------------------------------|

"Were so caught up in the moment"
eb|--------------------------------------------------------------------------------------|
Bb|--------------------------------------------------------------------------------------|
Gb|-----------------------------------------------------------------7--7--7--7-----------|
Db|-4-4-4-4-4-4-4-4-3-3-3-3-3-3-3-3-2-2-2-2-2-2-2-2-2-2-2-2-2-2-2-2-7--7--7--7-----------|
Ab|-4-4-4-4-4-4-4-4-4-4-4-4-4-4-4-4-2-2-2-2-2-2-2-2-2-2-2-2-2-2-2-2-5--5--5--5-----------|
Eb|-2-2-2-2-2-2-2-2-1-1-1-1-1-1-1-1-0-0-0-0-0-0-0-0-0-0-0-0-0-0-0-0----------------------|
  |                                                                                      |
eb|--------------------------------------------------------------------------------------|
Bb|-10101010101010109-9-9-9-9-9-9-9-7-7-7-7-7-7-7-7-7-7-7-7-7-7-7-7-5--5--5--5-----------|
Gb|--------------------------------------------------------------------------------------|
Db|--------------------------------------------------------------------------------------|
Ab|--------------------------------------------------------------------------------------|
Eb|--------------------------------------------------------------------------------------|


Chorus:

eb|-----------------------------|--|---------------------------|
Bb|-----------------------------|--|---------------------------|
Gb|---------------------7-7-7-7-|x3|-6--6--6-6-6-6-7--7--------|
Db|-7--7--7-7-7-7-4--4--7-7-7-7-|--|-6--6--6-6-6-6-7--7--9-9-9-|
Ab|-7--7--7-7-7-7-4--4--5-5-5-5-|--|-4--4--4-4-4-4-5--5--9-9-9-|
Eb|-5--5--5-5-5-5-2--2----------|--|---------------------7-7-7-|

eb|-----------------------------|--|---------------------------|
Bb|-----------------------------|--|---------------------------|
Gb|---------------------7-7-7-7-|x3|-6-6-6-6-6-6-6-6-7---------|
Db|-7--7--7-7-7-7-4--4--7-7-7-7-|--|-6-6-6-6-6-6-6-6-7---------|
Ab|-7--7--7-7-7-7-4--4--5-5-5-5-|--|-4-4-4-4-4-4-4-4-5---------|
Eb|-5--5--5-5-5-5-2--2----------|--|---------------------------|


eb|-----------------------------|--|---------------------------|
Bb|-----------------------------|--|---------------------------|
Gb|---------------------7-7-7-7-|x3|-6--6--6-6-6-6-7--7--------|
Db|-7--7--7-7-7-7-4--4--7-7-7-7-|--|-6--6--6-6-6-6-7--7--9-9-9-|
Ab|-7--7--7-7-7-7-4--4--5-5-5-5-|--|-4--4--4-4-4-4-5--5--9-9-9-|
Eb|-5--5--5-5-5-5-2--2----------|--|---------------------7-7-7-|

lead overtop:
eb|-5-5-5-5-5-5-5-5-5-5-5-5-5-5-5-5-9-9-9-9-9-9-9-9-9-9-9-9-9-9-9--|
Bb|-5-5-5-5-5-5-5-5-5-5-5-5-5-5-5-5-101010101010101010101010101010-|
Gb|----------------------------------------------------------------|
Db|----------------------------------------------------------------|
Ab|----------------------------------------------------------------|
Eb|----------------------------------------------------------------|

eb|------------------------|
Bb|-2----------------------|
Gb|-2----------------------|
Db|-2----------------------|
Ab|------------------------|
Eb|------------------------|




************************************

| /   slide up
| \   slide down
| h   hammer-on
| p   pull-off
| ~   vibrato
| +   harmonic
| x   Mute note
| b   Bend
| pb  Pre-bend
| br  Bend release
| pbr Pre-bend release
| brb Bend release bend

************************************
Tap to rate this tab
# A B C D E F G H I J K L M N O P Q R S T U V W X Y Z