Song name
# A B C D E F G H I J K L M N O P Q R S T U V W X Y Z

Modern Day Escape - Fit For A Queen tab

I never found a tab for this song. So I figured I'd give it a try but i know it needs tweaking. 
So please comment me or send a message if you have any changes. Thank You! (Listen to song for 
the strum pattern)

Drop C

h= hammer on
p= pull off
X= mute

Intro:

D|---------------------------------------------|
A|---------------------------------------------|
F|----------------------------8----------------|  (x2)
C|-----13----p12---h13---8----8---8------------|
G|-----10-----10----10---6----6---8------------|
C|-----10-----10----10---6--------8------------|

Second Time in intro MUTE strings before the verse

Verse:

(Repeat Introx2)

Chorus:

Heres where i have trouble!

D|---------------------------------------------|
A|---------------------------------------------|
F|---------------------------------------------|   (x2)
C|----10---9-----6----5----8-------------------|
G|----10---10----6----5----8-------------------|
C|----10---9-----6----5----8-------------------|


Fit For a Queen...Part

D|---------------------------------|
A|---------------------------------|
F|----------------------8----------|
C|---13--p12--h13---8---8---8---6--|
G|---10---10---10---6---6---8---6--|
C|---10---10---10---6-------8---6--|


Verse 2:

D|---------------------------------------------|
A|---------------------------------------------|
F|----------------8----------------------------|
C|---6---10---6---8---6------------------------|
G|---6---10---6---6---6------------------------|
C|---6---10---6-------6------------------------|

Chorus:

(Repeat Chorus)

Fit For A Queen Outro:

D|---------------------------|                D|-----|
A|---------------------------|                A|-----|
F|------------8--------------|  (x2) END WITH F|-----|
C|---10---8---8---6---5------|                C|--6--|
G|---10---8---6---6---5------|                G|--6--|
C|---10---8-------6---5------|                C|--6--|
Tap to rate this tab
 
# A B C D E F G H I J K L M N O P Q R S T U V W X Y Z