Song name
# A B C D E F G H I J K L M N O P Q R S T U V W X Y Z

Modern Day Escape - Maybe Holding Hands Wasnt Such A Good Idea tab

p- pull off
h- hammer on
x- block out(cover) strings
><- pinch harmonic







I didn't feel like figuring out the rest of the song, but here's an accurate start for 
anyone willing to try



   Intro:

[-----------------------------------]  (8 times)
[--t6p2h4(x4)-t7p2h4(x4)------------]
[-----------------------------------]
[-----------------------------------]
[-----------------------------------]
[-----------------------------------]

[-----------------------------------]  (4 times)
[--t11p7h9(x4)-t9p6h7(x4)-----------]
[-----------------------------------]
[-----------------------------------]
[-----------------------------------]
[-----------------------------------]



[-----------------------------------------------------------]
[-----------------------------------------------------------]
[-----------------------------------------------------------]
[-1---1-1-1-1---1----1-1-1-1-1-1-1-1-1-1-1------------------]
[-1---1-1-1-1---1----1-1-1-1-1-1-1-1-1-1-1------------------]
[-1---1-1-1-1---1----1-1-1-1-1-1-1-1-1-1-1------------------]
      x x x x

[-----------------------------------------------------------]
[-----------------------------------------------------------]
[-8---8-8-8-8---8----8-8-8-6-6-6-6-6-6-6-6------------------]
[-8---8-8-8-8---8----8-8-8-6-6-6-6-6-6-6-6------------------]
[-6---6-6-6-6---6----6-6-6-4-4-4-4-4-4-4-4------------------]
[-----------------------------------------------------------]
      x x x x

[-----------------------------------------------------------]
[-----------------------------------------------------------]
[-4---4-4-4-4---4---4-4-4-4-4-4-4-4-4-4-4-------------------]
[-4---4-4-4-4---4---4-4-4-4-4-4-4-4-4-4-4-------------------]
[-2---2-2-2-2---2---2-2-2-2-2-2-2-2-2-2-2-------------------]
[-----------------------------------------------------------]
      x x x x

[-----------------------------------------------------------]
[-----------------------------------------------------------]
[--4---4-4-4-4---4---4-4-4-4-4-4-4-4-6-6-6-6----------------]
[--4---4-4-4-4---4---4-4-4-4-4-4-4-4-6-6-6-6----------------]
[--2---2-2-2-2---2---2-2-2-2-2-2-2-2-4-4-4-4----------------]
[-----------------------------------------------------------]
       x x x x

[-----------------------------------------------------------]
[-----------------------------------------------------------]
[--11---10-10-10-10---10---10-10-10-11-10-10-10-13-13-13-13-]
[-----------------------------------------------------------]
[-----------------------------------------------------------]
[-----------------------------------------------------------]
        x  x  x  x

[-----------------------------------------------------------]
[-----------------------------------------------14-14-14-14-]
[--11---10-10-10-10---10---10-10-10-11-10-10-10-------------]
[-----------------------------------------------------------]
[-----------------------------------------------------------]
[-----------------------------------------------------------]
        x  x  x  x

[-----------------------------------------------------------]
[-----------------------------------------------------------]
[--11---10-10-10-10---10---10-10-10-11-10-10-10-13-13-13-13-]
[-----------------------------------------------------------]
[-----------------------------------------------------------]
[-----------------------------------------------------------]
        x  x  x  x

[-------------------------------------------------------------------]
[--------------------------------------------------------------->12<]
[--11---10-10-10-10---10---10-10-10--10h11p10-11h13p11-10h11p10-----]
[-------------------------------------------------------------------]
[-------------------------------------------------------------------]
[-------------------------------------------------------------------]
        x  x  x  x
Tap to rate this tab
 
# A B C D E F G H I J K L M N O P Q R S T U V W X Y Z