Song name
# A B C D E F G H I J K L M N O P Q R S T U V W X Y Z

Modern Life Is War - Destination Death Or Better Days tab

DESTINATION DEATH OR BETTER DAYS - Modern Life Is War

Intro
e|----------------------------------------|
B|----------------------------------------|
G|--9-9-9-9-9-9-9-9-9-9-9-9-9-9-9--7-7-7--|
D|---------------------------------5-5-5--|
A|----------------------------------------|
E|----------------------------------------|

Verse
e|---------------------------------------------------------------------------|
B|---------------------------------------------------------------------(x2)--|
G|-----------3--------3-3--2-2-----------------------4-4-4-4-4--7-7-7--------|
D|--2-2-2-2--3-5-5-5--3-3--2-2--2-2-2-2---5-5-5-5-5--4-4-4-4-4--5-5-5--------|
A|--2-2-2-2--1-5-5-5--1-1--0-0--2-2-2-2---5-5-5-5-5--2-2-2-2-2---------------|
E|--0-0-0-0----3-3-3------------0-0-0-0---3-3-3-3-3--------------------------|

Pre-Chorus [Lead guitar/rhythm plays verse]
e|-----------------------------------------------------------------|
B|-----------------------------------------------------------(x2)--|
G|--9-9-9-9-9-9-9-9-9-9--7-7-7-7-7-7--11-11-11-11-11--7-7-7--------|
D|----------------------------------------------------5-5-5--------|
A|-----------------------------------------------------------------|
E|-----------------------------------------------------------------|

Chorus
e|---------------------------------------------------|
B|---------------------------------------------(x3)--|
G|--9-9-9--9-11-9--7-7-7-7----------------7-7--------|
D|--9-9-9--9-11-9--7-7-7-7----------------5-5--------|
A|--7-7-7--7-9--7--5-5-5-5--2/3-3-3-3-3-3------------|
E|---------------------------------------------------|

 Bridge
e|----------------------------------------------------------|
B|----------------------------------------------------------|
G|--9-9-9--9-11-9--7-7-7-7----------------------------------|
D|--9-9-9--9-11-9--7-7-7-7----------------------------------|
A|--7-7-7--7-9--7--5-5-5-5---2/3-3-3-3-5-3-3--5-5-5-5-5-5-5-|
E|----------------------------------------------------------|

e|--------------------------------------------|
B|--------------------------------------------|
G|--------------------------------------------|
D|------------------4-4-4-4-4-4--2-2-2-2-2-2--|
A|---3-3-3-3-3-3-3----------------------------|
E|--------------------------------------------|

Break
e|-----------------------------------------------|
B|-----------------------------------------------|
G|-----------------------3-3-3-3-3--5--2-2-2-2-2-|
D|--2-2-2-2-2-2-2-2-2-2--3-3-3-3-3--5--2-2-2-2-2-|
A|--2-2-2-2-2-2-2-2-2-2--1-1-1-1-1--3--0-0-0-0-0-|
E|--0-0-0-0-0-0-0-0-0-0--------------------------|

e|----------------------------------------------|
B|----------------------------------------------|
G|--9-9-9-9-9-9---9-9--11-11--12-12--11-11--9-7-|
D|----------------------------------------------|
A|----------------------------------------------|
E|----------------------------------------------|

e|--------------------------|
B|--------------------------|
G|-3-3-3-3-3--5--2-2-2-2-2--|
D|-3-3-3-3-3--5--2-2-2-2-2--|
A|-1-1-1-1-1--3--0-0-0-0-0--|
E|--------------------------|

Repeat Verse/Chorus... End on E7.




Tap to rate this tab
 
# A B C D E F G H I J K L M N O P Q R S T U V W X Y Z