Song name
# A B C D E F G H I J K L M N O P Q R S T U V W X Y Z

Modern Life Is War - Deadramones tab

-------------------------------------------------------------------------------
	       D.E.A.D.R.A.M.O.N.E.S. - MODERN LIFE IS WAR
               http://modernlifeiswar.net/wordpress/index.php
-------------------------------------------------------------------------------
TABBED BY: GREG
EMAIL: GREGAHTRON3000@GMAIL.COM
BAND:MODERN LIFE IS WAR
CD: WITNESS
TUNING: STANDARD

[PART A]

  "MAKING COME TRUE OUR MODESTIMPOSSIBLE DREAMS...." 
e|---------------------------------------------------------------------------|
B|---------------------------------------------------------------------------|
G|---------------------6-6-6-6-----------------------------------------------|
D|------2-2-2-2--------6-6-6-6-----------------------------------------------|
A|------2-2-2-2--------4-4-4-4-[x4]---------[repeat-4-times]-----------------|
E|-(9+)-0-0-0-0-[x4]---------------------------------------------------------|

[PART B1]
Guitar 1

"WHAT COULD HAVE BEEN?WE DON'T WANNA KNOWTONIGHT WE'LL GET OUR KICKS..."
e|--------------------------------------------(3+)---------------------------|
B|--------------------------------------------(3+)---------------------------|
G|--------------------------------------------(3+)---------------------------|
D|--2----4----10----7------2----4----10---7---(3+)---------------------------|
A|--2----4----10----7------2----4----10---7---(3+)---------------------------|
E|--0----2----8-----5------0----2----8----5---(3+)---------------------------|

[PART B2]
Guitar 2

 "WHAT COULD HAVE BEEN?WE DON'T WANNA KNOWTONIGHT WE'LL GET OUR KICKS..."
e|--------------------------------------------(3+)--------------------------|
B|--------------------------------------------(3+)--------------------------|
G|--------------------------------------------(3+)--------------------------|
D|-9999999999999999999999999999999999999999---(3+)--------------------------|
A|--[tremolo-picked]^^------------------------(3+)--------------------------|
E|--------------------------------------------(3+)--------------------------|

[PART C]

"SORE BACK! SORE FEET! A RAGTAG ARMY AND WE'RE SICK OF THE HEAT...."
e|---------------------------------------------------------------------------|
B|---------------------------------------------------------------------------|
G|-6-6-6-6-6-6-6-6--5-5-5-5--------------------------------------------------|
D|-6-6-6-6-6-6-6-6--5-5-5-5--5-5-5-5--2-2-2-2-2-2-2-2-2-2-2-2-2-2-2-2--------|
A|-4-4-4-4-4-4-4-4--3-3-3-3--5-5-5-5--2-2-2-2-2-2-2-2-2-2-2-2-2-2-2-2-[4x]---|
E|---------------------------3-3-3-3--0-0-0-0-0-0-0-0-0-0-0-0-0-0-0-0--------|

"28 SHOWS, 28 DAYS. PULLING UP NEW ROUGES ALL ALONG THE WAY..."
e|---------------------------------------------------------------------------|
B|---------------------------------------------------------------------------|
G|-9-9---7-7---9-9---7-7--9-9--11-11-11-11--9-9-7-7-9-9-7-7-12-12-11-11-11-11|
D|-x-x---x-x---x-x---x-x--x-x--x--x--x--x---x-x-x-x-x-x-x-x--x--x--x--x--x--x|
A|-7-7---5-5---7-7---5-5--7-7--9--9--9--9---7-7-5-5-7-7-5-5-10-10--9--9--9--9|
E|---[--^--play---^---^--^---this---^--^--^--^--part--^--^--^--^--^-twice^--^|

AFTER THIS PLAY :
PART C 1 TIME 
PART A 3.5 TIMES
PART C 1 TIME

[PART D1]
GUITAR 1

" D.E.A.D.R.A.M.O.N.E.S!!D.E.A.D.R.A.M.O.N.E.S!! D.E.A.D.R.A.M.O.N.E.S!!!..."
e|---------------------------------------------------------------------------|
B|-11-11-11-9--9--9--9--9----------[16X]------------------------------------------------------|
G|-x--x--x--x--x--x--x--x----------[16X]---------------------------------------------------------|
D|-8--8--8--6--6--6--6--6----------[16X]---------------------------------------------------------|
A|---------------------------------------------------------------------------|
E|---------------------------------------------------------------------------|

[PART D2]
GUITAR 2

" D.E.A.D.R.A.M.O.N.E.S!!D.E.A.D.R.A.M.O.N.E.S!! D.E.A.D.R.A.M.O.N.E.S!!!..."
e|---------------------------------------------------------------------------|
B|---------------------------------------------------------------------------|
G|---------------------------------------------------------------------------|
D|-6~~~~~~~~~~~~~~~~~~~~~~~~~~~~2~~~~~~~~~~~~~~~~~~~~~[4x]-------------------|
A|-6~~~~~~~~~~~~~~~~~~~~~~~~~~~~2~~~~~~~~~~~~~~~~~~~~~[4x]-------------------|
E|-4~~~~~~~~~~~~~~~~~~~~~~~~~~~~0~~~~~~~~~~~~~~~~~~~~~[4x]-------------------|

[OUTRO]
GUITAR 1

"...WE'RE ALL DEAD RAMONES..."
e|---------------------------------------------------------------------------|
B|-11h9----11h9----11h9----11h9---11~~~~~~~~~~~~~~~~~~~~~~-------------------|
G|---------------------------------------------------------------------------|
D|---------------------------------------------------------------------------|
A|---------------------------------------------------------------------------|
E|---------------------------------------------------------------------------|

[OUTRO]
GUITAR 2

"...WE'RE ALL DEAD RAMONES"
e|---------------------------------------------------------------------------|
B|---------------------------------------------------------------------------|
G|---------------------------------------------------------------------------|
D|---------------------------------------------------------------------------|
A|---2~~~~~~~~~~~~2~~~~~~~~~~~~~~2----------------------------------------------|
E|---4~~~~~~~~~~~~0~~~~~~~~~~~~~~4----------------------------------------------|

LEGEND:
| ~  = Let Ring
| /  = slide up
| \  = slide down
| h  = hammer-on
| p  = pull-off
| ~  = vibrato
| +  = harmonic
| x  = Mute note

LYRICS:

MAKING COME TRUE ALL OUR MODEST, IMPOSSIBLE DREAMS
STUCK IN PUBLIC SCHOOL CLASSROOMS AT AGE 15
THOSE LONG HOT DAYS, JUST BEFORE THE SUMMER
...KNOWING THAT WE'RE STUCK HERE...
AND THERE'S SOMETHING HAPPENING SOMEWHERE
KNOWING WE KNOW WE GOTTA GET THERE
IT'S TRUE WHAT THEY SAY...
DEATH IS MORE PERFECT THAN LIFE...
THATS WHY WE ALREADY DIED

WHAT COULD HAVE BEEN? WE DON'T WANNA KNOW. 
TONIGHT WE'LL GET OUR KICKS. 
TONIGHT WE'RE ALL LETTING GO! 
'CAUSE WE'RE ALL DEAD RAMONES! 

SORE BACK! 
SORE FEET! 
A RAGTAG ARMY AND WE'RE SICK IN THE HEAT. 
WE'RE NOT PRETTY AND WE'RE NOT RICH, 
WE'RE GONNA HAFTA FUCKING WORK FOR IT.
IT'S OUR LIFE WE DO WHAT WE CHOOSE! 
BLACK JEANS.
BLACK SHIRT. 
BLAK SHOES.
MOM AND DAD...STILL DON'T APPROVE
28 SHOWS, 28 DAYS
PULLING UP NEW ROGUES ALL ALONG THE WAY
I'M JUST ANOTHER FACE IN THIS DESPERATE YOUTH PARADE
AND ALL THE: 
BUNK BEDS
LOCKED DOORS
HARDWOOD
SWEAT
GUTS
SKATEBOARDS 
COLD WAR BOMB SHELTER BASEMENT SCREAMS
NO SLEEP
GOOD DREAMS
WE'RE PLAYIN AS HARD AS WE CAN
AND A WHOLE LOTTA TIME STUCK IN THE VAN 
READING THE GRAFFITI ON EVERY BATHROOM WALL
IN TRUCK STOP BATHROOM HELL 
SAVE ME FROM ORDINARY 
SAVE ME FROM MYSELF 
ANOTHER PUNK ROCK SUMMER 
CAME AND WENT 
NOW I JUST WANNA GO BACK HOME
TURN UP MY STEREO
'TILL THE RHYTHM MELTS MY BONES 
'CAUSE IM A DEAD RAMONE.... 
D.E.A.D.R.A.M.O.N.E.S
===============================================================================
Tap to rate this tab
# A B C D E F G H I J K L M N O P Q R S T U V W X Y Z