Song name
# A B C D E F G H I J K L M N O P Q R S T U V W X Y Z

Modern Talking - Brother Louie tab

-------------------------------------------------------------------------------
                 Brother Louie by Modern Talking
-------------------------------------------------------------------------------
Tabbed by: chronic
Email: i_sm0k3@yahoo.com

Tuning: D standard tuning DGCFAD (corrected)


Intro:

D|--------15~-12-------15--12------15---12--10--12--10--12--------------------|
A|--12~------------12----------12--------------------------13~----------------|
F|----------------------------------------------------------------------------|
C|----------------------------------------------------------------------------|
G|----------------------------------------------------------------------------|
D|----------------------------------------------------------------------------|

D|--------15~-12-------15--12------15---12--10--12--10--12--------------------|
A|--13~------------13----------13--------------------------12~----------------|
F|----------------------------------------------------------------------------|
C|----------------------------------------------------------------------------|
G|----------------------------------------------------------------------------|
D|----------------------------------------------------------------------------|

D|--------15~-12-------15--12------15---12--10--12--10--12--------------------|
A|--12~------------12----------12--------------------------13~----------------|
F|----------------------------------------------------------------------------|
C|----------------------------------------------------------------------------|
G|----------------------------------------------------------------------------|
D|----------------------------------------------------------------------------|

D|--------15~-12-------15--12------15---12--10--12--10--12--------------------|
A|--13~------------13----------13--------------------------12~----------------|
F|----------------------------------------------------------------------------|
C|----------------------------------------------------------------------------|
G|----------------------------------------------------------------------------|
D|----------------------------------------------------------------------------|

feel free to tab the rest...


| /  slide up
| \  slide down
| h  hammer-on
| p  pull-off
| ~  vibrato
| +  harmonic
| x  Mute note
===============================================================================

Tap to rate this tab
 
# A B C D E F G H I J K L M N O P Q R S T U V W X Y Z