Song name
# A B C D E F G H I J K L M N O P Q R S T U V W X Y Z

Modest Mouse - House Of Tea tab

e ------------------------------------------------------------------------|
B ------------------------------------------------------------------------|
G 0-0-0-----------------------------x-xx-----x-x-x-x-x-x-x----------------|
D 5-5-5------5--9--5----------------x-xx-----0-0-0-0-0-0-0----------------|
A 2-2-2----2---------0-------44-4-0-x-xx-----6-6-6-6-3-3-3--------5-----6-|
E 0-0-0--2-------------2-----55-5-0-x-xx-----2-2-2-2-5-5-5-----0--0--0--0-|

e -----------------------9-9-9------9-10-10---------------10-----------------|
B ----------------------------9----5--------6---------------10---------------|
G -----------------------------8--7------------7--------------9--------------|
D -------------------------------6-----------------0--2--------10------------|
A ----------0-----8-8-8------------------------------------------9-----------|
E 12/5--------6---7-7-7----------------------------2--0-----------8~---------|

e ----------------xx-----------------xx-5-5-5-5-5-5-5-5-xx-3-3-3-3-3-3-3-3-|
B ----------------xx-5-5-5-5-5-5-5-5-xx-5-5-5-5-5-5-5-5-xx-0-0-0-0-0-0-0-0-|
G 5-5-5-5-5-5-5-5-xx-5-5-5-5-5-5-5-5-xx-0-0-0-0-0-0-0-0-xx-0-0-0-0-0-0-0-0-|
D 7-7-7-7-7-7-7-7-xx-0-0-0-0-0-0-0-0-xx-7-7-7-7-7-7-7-7-xx-0-0-0-0-0-0-0-0-|
A 7-7-7-7-7-7-7-7-xx-7-7-7-7-7-7-7-7-xx-4-4-4-4-4-4-4-4-xx-2-2-2-2-2-2-2-2-|
E 0-0-0-0-0-0-0-0-xx-4-4-4-4-4-4-4-4-xx-----------------xx-3-3-3-3-3-3-3-3-|

e ----------------xx-----------------xx-5-5-5-5-5-5-5-5-xx-3-3-3-3-3-3-3-3-|
B ----------------xx-5-5-5-5-5-5-5-5-xx-5-5-5-5-5-5-5-5-xx-0-0-0-0-0-0-0-0-|
G 5-5-5-5-5-5-5-5-xx-5-5-5-5-5-5-5-5-xx-0-0-0-0-0-0-0-0-xx-0-0-0-0-0-0-0-0-|
D 7-7-7-7-7-7-7-7-xx-0-0-0-0-0-0-0-0-xx-7-7-7-7-7-7-7-7-xx-0-0-0-0-0-0-0-0-|
A 7-7-7-7-7-7-7-7-xx-7-7-7-7-7-7-7-7-xx-4-4-4-4-4-4-4-4-xx-2-2-2-2-2-2-2-2-|
E 0-0-0-0-0-0-0-0-xx-4-4-4-4-4-4-4-4-xx-----------------xx-3-3-3-3-3-3-3-3-|

e ----------------xx-----------------xx-5-5-5-5-5-5-5-5-xx-3-3-3-3-3-3-3-3-|
B ----------------xx-5-5-5-5-5-5-5-5-xx-5-5-5-5-5-5-5-5-xx-0-0-0-0-0-0-0-0-|
G 5-5-5-5-5-5-5-5-xx-5-5-5-5-5-5-5-5-xx-0-0-0-0-0-0-0-0-xx-0-0-0-0-0-0-0-0-|
D 7-7-7-7-7-7-7-7-xx-0-0-0-0-0-0-0-0-xx-7-7-7-7-7-7-7-7-xx-0-0-0-0-0-0-0-0-|
A 7-7-7-7-7-7-7-7-xx-7-7-7-7-7-7-7-7-xx-4-4-4-4-4-4-4-4-xx-2-2-2-2-2-2-2-2-|
E 0-0-0-0-0-0-0-0-xx-4-4-4-4-4-4-4-4-xx-----------------xx-3-3-3-3-3-3-3-3-|

e --------------------1-1-1-1/5-5-5-5/9-9-9-9/0-0-0-0-|
B --------------------1-1-1-1/5-5-5-5/9-9-9-9/0-0-0-0-|
G --------------------1-1-1-1/5-5-5-5/9-9-9-9/0-0-0-0-|
D ------9------6-6-6--1-1-1-1/5-5-5-5/9-9-9-9/0-0-0-0-|
A ----9--9-----7-7-7--1-1-1-1/5-5-5-5/9-9-9-9/0-0-0-0-|
E 9-------9----4-4-4--1-1-1-1/5-5-5-5/9-9-9-9/0-0-0-0-|


e ----------------xx-----------------xx-5-5-5-5-5-5-5-5-xx-3-3-3-3-3-3-3-3-|
B ----------------xx-5-5-5-5-5-5-5-5-xx-5-5-5-5-5-5-5-5-xx-0-0-0-0-0-0-0-0-|
G 5-5-5-5-5-5-5-5-xx-5-5-5-5-5-5-5-5-xx-0-0-0-0-0-0-0-0-xx-0-0-0-0-0-0-0-0-|
D 7-7-7-7-7-7-7-7-xx-0-0-0-0-0-0-0-0-xx-7-7-7-7-7-7-7-7-xx-0-0-0-0-0-0-0-0-|
A 7-7-7-7-7-7-7-7-xx-7-7-7-7-7-7-7-7-xx-4-4-4-4-4-4-4-4-xx-2-2-2-2-2-2-2-2-|
E 0-0-0-0-0-0-0-0-xx-4-4-4-4-4-4-4-4-xx-----------------xx-3-3-3-3-3-3-3-3-|


e ----------------xx-----------------xx-5-5-5-5-5-5-5-5-xx-3-3-3-3-3-3-3-3-|
B ----------------xx-5-5-5-5-5-5-5-5-xx-5-5-5-5-5-5-5-5-xx-0-0-0-0-0-0-0-0-|
G 5-5-5-5-5-5-5-5-xx-5-5-5-5-5-5-5-5-xx-0-0-0-0-0-0-0-0-xx-0-0-0-0-0-0-0-0-|
D 7-7-7-7-7-7-7-7-xx-0-0-0-0-0-0-0-0-xx-7-7-7-7-7-7-7-7-xx-0-0-0-0-0-0-0-0-|
A 7-7-7-7-7-7-7-7-xx-7-7-7-7-7-7-7-7-xx-4-4-4-4-4-4-4-4-xx-2-2-2-2-2-2-2-2-|
E 0-0-0-0-0-0-0-0-xx-4-4-4-4-4-4-4-4-xx-----------------xx-3-3-3-3-3-3-3-3-|
Tap to rate this tab
 
# A B C D E F G H I J K L M N O P Q R S T U V W X Y Z