Song name
# A B C D E F G H I J K L M N O P Q R S T U V W X Y Z

Modest Mouse - Karmas Payment tab

Email:Jareks_Skate@hotmail.com

Tuning:Standard

Ok I'm not entirely sure about the strumming patterns on this one so you've
got to listen to the song. But the entire guitar part is based on the A, G,
C, and F, power chords and the chord's root note. Other than that it should
be good. Tell me what you think  -Jarek

 Intro: (Guitar comes in at about 42 seconds into the song)
e|---------------------------------------------------|
B|---------------------------------------------------|
G|---------------------------------------------------|
D|---------------------------------------------------|
A|-------------3---------------3---------------33----|
E|-3---5---3-------1---5---3-------1---5---3-------11|


e|--------------|
B|--------------|
G|--------------| x3
D|--------------|
A|--------33----|
E|55--33------11|

e|----------------|
B|----------------|
G|--------5-55----|
D|777733335-553333|
A|777755553-333333|
E|55553333----1111|
  ........  ...

e|----------------|
B|----------------|
G|----------------| x2
D|----------------|
A|--------3333----|
E|5-5-3333----1111|

e|----------------|
B|----------------|
G|----------------| x5
D|----------------|
A|--------3333----|
E|55553333----1111|

 No guitar for about 26 seconds

e|----------------|
B|----------------|
G|----------------|
D|------------3333|
A|--------33333333|
E|5-5-3333----1111|

e|----------------|
B|----------------|
G|--------5555----| x4
D|7777555555553333|
A|7777555533333333|
E|55553333----1111|

e|--------------------------------|
B|--------------------------------|
G|--------------------------------| 
D|--------------------------------|
A|---------3---------------3------|
E|-5---3-------1---5---3-------1br|

e|----------------|
B|----------------|
G|----------------| x5
D|----------------|
A|---------3br----|
E|-5br-3br-----1br|

----------------------------------------------------------------------------
|.= palm mute
|b= bend
|r= bend release
Tap to rate this tab
 
# A B C D E F G H I J K L M N O P Q R S T U V W X Y Z