Song name
# A B C D E F G H I J K L M N O P Q R S T U V W X Y Z

Modest Mouse - Every Penny Fed Car tab

Help us improve GuitareTab! Take a short survey!
By: Modest Mouse
Song: Every Penny Fed Car
tabbed by chrtes


| /  slide up
| \  slide down
| h  hammer-on
| p  pull-off
| ~  vibrato
| +  harmonic
| x  Mute note


strum these light then
e|------------------------------------------|
b|------------------------------------------|
g|--19-----17----16---12--------------------|
D|--0-------0-----0----0--------------------|
A|--17-----15----14---10--------------------|
E|------------------------------------------|

e|-------------------------------------------|2x
b|-------------------------------------------|
g|--19-19---17-17----16---12--12-12----------|
D|--0--0----0--0-----0----0---0--0-----------|
A|--17-17---15-15----14---10--10-10----------|
E|-------------------------------------------|


e|--------------------------|
b|--------------------------|
g|---11--12--11-12----------|
D|---0---0---0--0-----------|
A|---9---10--9--10----------|
E|--------------------------|


e|-------------------------------------------|2x
b|-------------------------------------------|
g|--19-19---17-17----16---12--12-12----------|
D|--0--0----0--0-----0----0---0--0-----------|
A|--17-17---15-15----14---10--10-10----------|
E|-------------------------------------------|


e|--------------------------|
b|--------------------------|
g|---11--12--11-12----------|
D|---0---0---0--0-----------|
A|---9---10--9--10----------|
E|--------------------------|


e|--------------------------|4x
b|--------------------------|
g|---19----9-9---7--7-------|
D|---0-----0-0---0--0-------|
A|---17----7-7---5--5-------|
E|--------------------------|

repeat then the ending

e|--------------------------|
b|--------------------------|
g|--7-7--7---12---14--------|
D|--0-0--0------------------|
A|--5-5--5------------------|
E|--------------------------|


e|--------------------------|
b|--------------------------|
g|--7-7--7------------------|
D|--0-0--0------------------|
A|--5-5--5-----10--12--10---|
E|--------------------------|

and thats how the end basically goes. I cant and dont feel like trying to give you the 
and the placement but you're good enough to figure that out.
Related for Every Penny Fed Car tab