Song name
# A B C D E F G H I J K L M N O P Q R S T U V W X Y Z

Modest Mouse - King Rat tab

-------------------------------------------------------------------------------
			                         KING RAT - Modest Mouse
-------------------------------------------------------------------------------
Tabbed by: Daniel O Henry
Email: reducedfatcreamy@yahoo.com

Tuning: Standard

e|-----6----6---|
B|---4--4---4---|
G|---5----5-5---|  4X
D|--------------|
A|--------------|
E|--------------|

e|------3------------3-------------3-----------|
B|----4--7-4-------4--7-4---4----4--7-4--------|
G|---5-5----5-----5-5----5-3-5--5-5----5-------|
D|---------------------------------------------|
A|---------------------------------------------|
E|---------------------------------------------|

e|---------------------------------------------|
B|---------------------------------------------|
G|-------------5!--------------------------5!---|
D|-------------5!--------------------------5!---|
A|-------------3!--------------------------3!---|
E|---------------------------------------------|

e|-----6----6---|
B|---4--4---4---|
G|---5----5-5---|  4X
D|--------------|
A|--------------|
E|--------------|

This is just part of the intro.
i'm still working on putting the the rest up, and the rest of the song as well.


| /  slide up
| \  slide down
| h  hammer-on
| p  pull-off
| ~  vibrato
| +  harmonic
| x  Mute note
| !  Exclamate notes
===============================================================================
Tap to rate this tab
# A B C D E F G H I J K L M N O P Q R S T U V W X Y Z