Song name
# A B C D E F G H I J K L M N O P Q R S T U V W X Y Z

Modest Mouse - Wagon Ride Return tab

I was on a roll......
You can't end a roll!

--------------------------------
Wagon Ride Return - Modest Mouse
--------------------------------
Tabbed by: Rhys Gerwin
Email: Jiraoxys7@hotmail.com

Tuning:EADGBe

  Main Riff        Main Riff Variation
e|-9-------7-----|-9p0-----7p0---|
B|-----9-------7-|-----9-------7-|
G|---------------|---------------|
D|---------------|---------------|
A|-----7-------5-|-----7-------5-|
E|-7-------5-----|-7-------5-----|

Sometimes mute the strings between
plucks.

hopped on the wagon, went two feet 
now i'm back again 
i hit a hard wall 
shout two words 
i don't understand 

---------------------------------

It's fun to tab easy songs in 5 minutes
Tap to rate this tab
# A B C D E F G H I J K L M N O P Q R S T U V W X Y Z