Guitaretab - guitar tabs
Song name
# A B C D E F G H I J K L M N O P Q R S T U V W X Y Z

Modest Mouse - Four Fingered Fisherman tab

By: Modest Mouse
Song: Four Fingered Fisherman
tabbed by chrtes


| /  slide up
| \  slide down
| h  hammer-on
| p  pull-off
| ~  vibrato
| +  harmonic
| x  Mute note

This song is in standard tuning but if you have a tuner tune your guitar to be slighty 
of tune so it sounds right.

e|------------------------------------------------|
b|------------------------------------------------|
G|------------------------------------------------|
D|----12------10------8-----8b--0--8b--0----------|
A|------------------------------------------------|
E|------------------------------------------------|

e|----------------------------------------------------|
b|----------------------------------------------------|
G|----------------------------------------------------|
D|----12------10------8---------------------5-----7---|
A|-----------------------------5------7---------------|
E|----------------------------------------------------|

e|--------------------------------------------------------|
b|--------------------------------------------------------|
G|--------------------------------------------------------|
D|----12------10------8---------------------5-----7~----5-|
A|-----------------------------5------7-------------------|
E|--------------------------------------------------------|

[ Tab from: http://www.guitaretab.com/m/modest-mouse/111635.html ]
e|---------------------------------------------------|
b|---------------------------------------------------|
G|---------------------------------------------------|
D|----8b--0--8b--0-------12--------10-----8----------|
A|---------------------------------------------------|
E|---------------------------------------------------|


e|------------------------------------|
b|------------------------------------|
G|------------------------------------|
D|----------------------5-----7-------|
A|-----5------7-----------------------|
E|------------------------------------|

e|-------------------------------------- ----------------------------------|
b|-------------------------------------- ----------------------------------|
G|------------------------------------ ------------------------------------|
D|--5------7------9-----10------12--12----12--12--12-12--------------------|
A|-------------------------------------- ----------------------------------|
E|-------------------------------------- ----------------------------------|

e|-----------------------------------------------|
b|-----------------------------------------------|
G|-----------------------------------------------|
D|----12----14----12-----14--12---12-------------|
A|-----------------------------------------------|
E|-----------------------------------------------|

e|-------------------------------------|
b|-------------------------------------|
G|------------4------------------------|
D|------------0------------------------|
A|------------2------------------------|
E|-------------------------------------|
Related for Four Fingered Fisherman tab
×
Best way to learn
"Four Fingered Fisherman"