Guitaretab - guitar tabs
Song name
# A B C D E F G H I J K L M N O P Q R S T U V W X Y Z

Modest Mouse - Jaw Breaker Sweater tab

i found this out today. tabbing i while is fresh in my mind.


This song is a "Jam song" they have played. if you know the song you should know how to 
it.


e---------------------------------------------------------|
B---------------------------------------------------------|
G--7--7------7--7-----7--7------7-7----6---2--------------|
D--x--x------x--x-----x--x------x-x----x---x--------------|
A--5--5------5--5-----5--5------5-5----4---4--------------|
E---------------------------------------------------------|

[ Tab from: http://www.guitaretab.com/m/modest-mouse/115481.html ]
e---------------------------------------------------------|
B---------------------------------------------------------|
G--7--7------7--7-----7--7------2-2-\--6-6----------------|
D--x--x------x--x-----x--x------x-x-\--x-x----------------|
A--5--5------5--5-----5--5------4-4-\--4-4----------------|
E---------------------------------------------------------|


once dont with the second part repet it again and shit.

umm corrections go to almost1993@aim.com

i also found out the intro to Beta Carotene but im waiting till a get a majority of the 
to post it
Related for Jaw Breaker Sweater tab
Advertisement will be closed in 10 seconds