Song name
# A B C D E F G H I J K L M N O P Q R S T U V W X Y Z

Modest Mouse - Classy Plastic Lumber tab

Lift the bad weight off your molars...
e|------------------------------------------------------------------------|
b|------------------------------------------------------------------------|
g|----9----------------------------------------6-7-6---6------------------|
d|----9---------------7------------------------------7--------------------|
a|----7---------------7---------------------------------------------------|
E|--------------------5---------------------------------------------------|


the part after:
In my lipstick I'm so much fun
e|------------------------------------------------------------------------|
b|------------------------------------------------------------------------|
g|----9-9---7-7-6-----9-9---7-7-6------9---9---9-9-9-7---7-7--------------|
d|----9-9---------7---9-9---------7----9---9---9-9-9-7---7-7-7---7-7------|
a|----7-7-------------7-7--------------7---7---7-7-7-5---5-5-7---7-7------|
E|-----------------------------------------------------------5---5-5------|
Tap to rate this tab
 
# A B C D E F G H I J K L M N O P Q R S T U V W X Y Z