Song name
# A B C D E F G H I J K L M N O P Q R S T U V W X Y Z

Modest Mouse - Sleepwalking tab


Modest Mouse - Sleepwalking
Album: Building Nothing Out Of Something


           INTRO

---8----3--1/---3--4---3--1--'
---8----5--3/---5--6---5--3--'
-----------------------------'
-----------------------------'
-----------------------------'
-----------------------------'

--------------------------------------------------------'
--------1-----------1-------------1---------------------'
------0---0-------2---2---------1---1----------0--------'
----2-------2---2-------2-----0-------0------0---0------' & play this
--3-----------0----------------------------2-------0----' 4 the whole
---------------------------1-------------3--------------' song.
I fell in love and
I needed a roadmap
To find out where you lived
So excited now
Sleepwalking, cause I'm sleepwalking
The white trash boys
Listen to the headphones
Blasting white noise
In the convenience store parking lot
I hung around there
Wasting my time
Hoping you'll stop by
Cause I'm sleepwalking, I'm sleepwalking
A mutual friend's parents
Left town for a week
So we raided their liquor stash
And walked down by the riverside
Sleepwalking, cause I'm sleepwalking

i havn't done the solo havn't figured it out yet but
maybe this will help.

-------------------------------------------------'
--2/3-3-3-5-3-2-2-2-3-2--------------------------'
------------------------4-4-4-6-4-2--------------'
-------------------------------------------------'
-------------------------------------------------'
-------------------------------------------------'

bobbytabasco@yahoo.com if you have any questions
Tap to rate this tab
# A B C D E F G H I J K L M N O P Q R S T U V W X Y Z