Song name
# A B C D E F G H I J K L M N O P Q R S T U V W X Y Z

Modest Mouse - Might tab

----------------------------------------------------------------------------
			     MIGHT - Modest Mouse
----------------------------------------------------------------------------

From "This is a long drive..."
tabbed by: Shane Moore aka Unseen_Hero
email: agentorange1@gmail.com (spam = death)
tuning: standard

This tab is my first submitted because i don't have enough time to submit the ones i
have.  This one's damn close to perfect, since the other's were so bad.  The only part
i'm on sure about is the last part when he sings "Broke every bone in my.."  Exact
strumming for verse and bridge is not shown, it's not hard to figure out and it's a
waste of time to tab each one.


Intro
e--------------------------------------|
B--------------------------------------|
G-----0---0---0---0--------------------|
D-2-22--22--22--22----0---0---0--------|
A-------------------33--33--33--33--55-|
E--------------------------------------|

E---------------------------------|
B---------------------------------|
G-----0---0---0---(0)-------------|
D-2-22--22--22--22------0---------|(repeat throughout verse)
A--------------------3-3--222-----|
E-----------------------------333-|

Verse-alternates between two
e------------------------------------------------------------|
B--0---0-----------------------------------------------------|
G--2---2-----------4---4-------------------------------------|
D--2---2---2---2---4---4------------------3--3--3--3--3----2-|
A--0---0---3---3---2---2--------2--2------3--3--3--3--3----2-|
E-------------------------------3--3------1--1--1--1--1----0-|

Verse-variation
e-------------------------------------------------------------|
B-0---0-------------------------------------------------------|
G-2---2-----------4---4---------------------------------------|
D-2---2---2---2---4---4----------------3/5----3/5-------------|
A-0---0---3---3---2---2----2--2--------3/5----3/5-------------|
E--------------------------3--3--------1/3----1/3----2--0-----|

"Broke everybone in my goddamn..."
not so sure about this part, but it's better than anything else out there
(correct number of strums not shown)

e-000--000---|
B-333--111---|
G-222--000---|
D------------|
A------------|
E------------|

| () ghost note
| /  slide up
| \  slide down
| h  hammer-on
| p  pull-off
| ~  vibrato
| +  harmonic
| x  Mute note
============================================================================
Tap to rate this tab
# A B C D E F G H I J K L M N O P Q R S T U V W X Y Z