Song name
# A B C D E F G H I J K L M N O P Q R S T U V W X Y Z

Modest Mouse - Invisible tab

Title: Invisible (track 14)
Artist: Modest Mouse
Album: We Were Dead Before the Ship Even Sank

tabbed by Steve "SPiV" Perreira IV


Guitar I - Isaac Brock
Guitar II - Johnny Marr
Guitar (slide) - Johnny Marr


--

Guitar I - Isaac Brock


intro
e-----------------|-----------------------------|
B--x---x---x--x-x-|--x--x--x--x--x--x--x--x--x--|
G--x---x---x--x-x-|--x--x--x--x--x--x--x--x--x--|
D--x---x---x--x-x-|--x--x--x--x--x--x--x--x--x--|
A--x---x---x--x-x-|--x--x--x--x--x--x--x--x--x--|
E-----------------|-----------------------------|
these are harmonics played over 12th or 13th fret, depending
on which you like more. 13th has the same sound, but more chunky
and percussive (like the song). Gradually play these faster.


intro riff
e---------------------------|-------------------------|
B---------------------------|-------------------------|
G--16-16-16-16--14-14-14-14-|--12-12-12-11---11-11-11-|
D---------------------------|-------------------------|
A---------------------------|-------------------------|
E---------------------------|-------------------------|x2

e---------------------------|----------------|
B---------------------------|----------------|
G--11p9-11p9-11p9-11p9-11p9-|--6--7---7-7-7--|
D---------------------------|----------------|
A---------------------------|----------------|
E---------------------------|----------------|x2

verse2 harmonics are played over the 9th fret.


breakdown
e------------------|------------------|
B------------------|------------------|
G--12--11--6--4----|--12--11--6--7----|
D------------------|------------------|
A--10--9---4--2----|--10--9---4--5----|
E------------------|------------------|
"I like the saline tea..."


pre-verse fill
e---------------------|---------------------|
B---------------------|---------------------|
G---------------------|---------------------|
D---------------------|---------------------|
A---------------------|---------------------|
E--10-9-7-10-9-7-10-9-|--10-9-7-10-9-7-10-9-|


solo
e------------------------------------|-------------------------------------------|
B------------------------------------|-------------------------------------------|
G----------------------------2p0-----|---------------------------2p0-2p0---------|
D----0-2-4-2-0----0-2-4-2-0------4p0-|----0-2-4-2-0----0-2-4-2-0---------4p0-2p0-|
A--2------------2--------------------|--2------------2---------------------------|
E------------------------------------|-------------------------------------------|

e------------------------------------|--------------------|
B------------------------------------|--------------------|
G----------------------------2p0-----|--------------------|
D----0-2-4-2-0----0-2-4-2-0------4p0-|----0-2-4-2--0------|
A--2------------2--------------------|--2------------2----|
E------------------------------------|--------------------|


bridge
e----------------------|---------------------|
B----------------------|---------------------|
G----------------------|---------------------|
D--9-------------------|--9------------------|
A-----9--7p5--7--9-7-5-|-----9--7p5--7--5----|
E----------------------|---------------------|x2

e---------------------------------|
B---------------------------------|
G---------------------------------|
D--9-9----------------------------|
A------9-9-7-7-5--7-7-9-9-7-7-5-5-|
E---------------------------------|x2
"of course..."


last verse
e------------------|------------------|
B------------------|------------------|
G--12--11--6--4----|--12--11--6--7----|
D------------------|------------------|
A--10--9---4--2----|--10--9---4--5----|
E------------------|------------------|
"I like the saline tea..."

outro
e---------------------------|------------------------------|
B---------------------------|------------------------------|
G--11s-4-11s-4--11--9--7--9-|--11s-4-11s-4--11--14--12--11-|
D---------------------------|------------------------------|
A--9-s-2-9-s-2--9---7--5--7-|--9-s-2-9-s-2--9---12--10--9--|
E---------------------------|------------------------------|

e---------------------------|-----------------------------------|
B---------------------------|-----------------------------------|
G--11s-4-11s-4--11--9--7--9-|--11s-4-11s-4--11--14---12---11~~--|
D---------------------------|-----------------------------------|
A--9-s-2-9-s-2--9---7--5--7-|--9-s-2-9-s-2--9---12---10---9~~~--|
E---------------------------|-----------------------------------|
"We'll get crushed..."


--

Guitar II - Johnny Marr


intro
e--14-14-14-------|
B--15-15-15-15----|
G-----------16----|
D-----------------|
A-----------------|
E-----------------|x4


intro riff
e--------------------------|
B--------------------------|
G--------------------------|
D----------7-7-7-7--9------|
A--9-9-9-9-9-9-9-9----9----|
E--------------------------|x2

e-------------------------------|---------------------------7--|
B---------------------------15--|---------------------------7--|
G---------------------------16--|------------------------------|
D--9-9-9-9-7-7-7-7--------------|--9-9-9-9-7-7-7-7-------------|
A------------------10-10-10-----|------------------10-10-10----|
E-------------------------------|------------------------------|


verse
e---------------------7--|-----------------------7--|
B---------------------7--|-----------------------7--|
G------------------------|----------7-7-7--7-7-7----|
D--9--9--9-9-9--9-9-9----|--9--9--9-9-9-9--9-9-9----|
A------------------------|--------------------------|
E--7--7--7-7-7--7-7-7----|--7--7--7-7-7-7--7-7-7----|

e-------------------------------|---------------------------7--|
B---------------------------15--|---------------------------7--|
G---------------------------16--|------------------------------|
D--9-9-9-9-7-7-7-7--------------|--9-9-9-9-7-7-7-7-------------|
A------------------10-10-10-----|------------------10-10-10----|
E-------------------------------|------------------------------|


pre-verse 2
e-------------------------------|-------------------------------|
B-------------------------------|-------------------------------|
G-------------------------------|-------------------------------|
D--9-9-9-9-7-7-7-7----------4---|--9-9-9-9-7-7-7-7----------4---|
A------------------10-10-10-----|------------------10-10-10-----|
E---------------------------2---|---------------------------2---|


bridge
e-----------------------|-------------------|
B--12-------------------|--12---------------|
G-----11-9p7-9--11--9-7-|-----11-9p7--9--7--|
D-----------------------|-------------------|
A-----------------------|-------------------|
E-----------------------|-------------------|x2


last verse
e--------------------------|----------------------------|
B--------------------------|----------------------------|
G--------------------------|----------------------------|
D--5--5--4--4--7--7--2--2--|--5--5--4--4--7--7--9-9-9-9-|
A--------------------------|----------------------------|
E--3--3--2--2--5--5--0--0--|--3--3--2--2--5--5--7-7-7-7-|

e--------------------------|------------------------------|
B--------------------------|------------------------------|
G--------------------------|------------------------------|
D--5--5--4--4--7--7--2--2--|--5--5--4--4--7-7-7-7-9-9-9-9-|
A--------------------------|------------------------------|
E--3--3--2--2--5--5--0--0--|--3--3--2--2--5-5-5-5-7-7-7-7-|


outro
e--14-14-14-------|
B--15-15-15-15----|
G-----------16----|
D-----------------|
A-----------------|
E-----------------|x4


--

Guitar (slide) - Johnny Marr

breakdown
e--10--/12----|
B--10--/12----|
G-------------|
D-------------|
A-------------|
E-------------|
"I like the saline tea..."

e---------------|--------------|---------------|
B---------------|--12-s-s-s-s--|---------------|
G--/12-s-s-s-s--|--------------|--/12-s-s-s-s--|
D---------------|--------------|---------------|
A---------------|--------------|---------------|
E---------------|--------------|---------------|
slow slide down

e--12/-/-/-/-/-/-/-/--|
B--12/-/-/-/-/-/-/-/--|
G---------------------|
D---------------------|
A---------------------|
E---------------------|
gradually slow to fast slide up. Slide fast over the pickups towards the end.


--

tabbed by Steve "SPiV" Perreira IV
Tap to rate this tab
# A B C D E F G H I J K L M N O P Q R S T U V W X Y Z