Song name
# A B C D E F G H I J K L M N O P Q R S T U V W X Y Z

Modest Mouse - Nothing New tab

Help us improve GuitareTab! Take a short survey!
Modest Mouse - Nothing New
From Sad Sappy Sucker demos

Tabbed by: Cory Prusha
email: interjection@gmail.com
youtube: porkstorm

To play to the regular mp3, you will need to tune a quarter step
(~50 cents) down. Or, to bring it to standard tuning, change the
playback rate to 103% speed. If you can't do that, but you would
prefer it, email me.


  0:01
e|-----------------------------------------------------------------|
b|--------------------10-10-------------------------10-10--10------|
G|------11---------11----11-----12p11-11-----11-----11-11--11---0--|
D|---12----12---12------------12---------12------12---------0--12--|
A|-0----------0-------------0------------------0------------9--12--|
E|-------------------------------------------------------------10--|
                                                           4x  4x

  0:49
e|-----------------------------------------------------------------|
b|------------------------------------(3-3-3-3-3-3)----------------|
G|-0-0-0-0-0-0-0-0-2-2-2-2-2-2-2-2-0-0-0-0-0-0-0-0-----------------|
D|-4-4-4-4-4-4-4-4-2-2-2-2-2-2-2-2-5-5-5-4-5-4-5-4-0-0-0-0-0-0-0-0-|
A|-5-5-5-5-5-5-5-5-0-0-0-0-0-0-0-0-5-5-5-5-5-5-5-5-2-2-2-2-2-2-2-2-|
E|-------------------------------------------------3-3-3-3-3-3-3-3-|
   Palm muted


  1:16                                               2:56
e|-------------------------------------------------|--2-----5--|
b|-3--3--3--3--3--3--3--3--3--3--3--3--3--3--3--3--|--3-----3--|
G|-0--0--0--0--2--2--2--2--4--4--4--4--2--2--2--2--|--4-----2--|
D|-0--0--0--0--0--0--0--0--4--4--4--4--4--4--4--4--|--0-----0--|
A|-2--2--2--2--0--0--0--0--2--2--2--2--5--5--5--5--|-----------|
E|-------------------------------------------------|-----------|
   Listen for the strum patterns                      4x each
Related for Nothing New tab