Song name
# A B C D E F G H I J K L M N O P Q R S T U V W X Y Z

Modest Mouse - Satellite Skin tab

i just watched modest mouse play this song on david letterman and i figured id
tab Isaac's part out since it wasnt up here alredy. if anythings wrong with it
let me know and ill fix it. Bmark@atlanticbb.net

Key:
/-slide up to
*-Palm mute

Intro:
e|---------------------------------------------------|
B|---------------------------------------------------|
G|---------------------------------------------------|
D|---/6-----6-----6---6-6-6-6-6-6-6------------------|
A|---/7-----7-----7---7-7-7-7-7-7-7------------------|
E|----0-0-0-0-0-0-0-0-0-0-0-0-0-0-0------------------|
      * * * * * * * * * * * * * * *
*You really need to accent the E and G# (A7 and D6) bend the hell
out of them
e|---------------------------------------------------|
B|---------------------------------------------------|
G|-----------8-----8-----8---8-8-8-8-----------------|
D|-----------9-----9-----9---9-9-9-9-----------------|
A|---9-9-9-9-9-9-9-9-9-9-9-9-9-9-9-9-----------------|
E|---7-7-7-7-7-7-7-7-7-7-7-7-7-7-7-7-----------------|
     * * * * * * * * * * * * * * * *
Same thing for the E flat (G8) bend the hell out of it with your
middle finger and accent it when you play it
e|---------------------------------------------------|
B|---------------------------------------------------|
G|-----------6-----6-----6---6-6-6-6-----------------|
D|-----------7-----7-----7---7-7-7-7-----------------|
A|---7-7-7-7-7-7-7-7-7-7-7-7-7-7-7-7-----------------|
E|---5-5-5-5-5-5-5-5-5-5-5-5-5-5-5-5-----------------|
     * * * * * * * * * * * * * * * *
Also bend and accent the C# (G6)

Verse:
"If you break these moth wing feelings...."
e|-----------------------------------------------------|
B|-----------------------------------------------------|
G|-----------------------------------------------------|
D|-/6-6-6-6-6-6-6-6-6-6-6-6-6-6-6----------------------|
A|-/7-7-7-7-7-7-7-7-7-7-7-7-7-7-7----------------------|
E|-/0-0-0-0-0-0-0-0-0-0-0-0-0-0-0----------------------|exct.
   * * * * * * * * * * * * * * *

"Powdered/Powdery dust on your fingers...."
e|---------------------------------------------------|
B|---------------------------------------------------|
G|---------------------------------------------------|
D|-9-9-9-9-9-9-9-9-9-9-9-9-9-9-9---------------------|
A|-9-9-9-9-9-9-9-9-9-9-9-9-9-9-9---------------------|
E|-7-7-7-7-7-7-7-7-7-7-7-7-7-7-7---------------------|
   * * * * * * * * * * * * * * *

"Well know that im praying on leaving/Well know were not prayin were kneelin (Isaac 
up the lyrics on the vids i watched =P)"
e|---------------------------------------------------|
B|---------------------------------------------------|
G|---------------------------------------------------|
D|-7-7-7-7-7-7-7-7-7-7-7-7-7-7-7---------------------|
A|-7-7-7-7-7-7-7-7-7-7-7-7-7-7-7---------------------|
E|-5-5-5-5-5-5-5-5-5-5-5-5-5-5-5---------------------|
   * * * * * * * * * * * * * * *

Repeat those chords for the rest of the verse

Isaac's solo

e|---------------------------------------------------|
B|---------------------------------------------------|
G|--7p6h7p6------------------------------------------|
D|------------9--666-666-7-6-------------------------|
A|---------------------------7-----------------------|
E|---------------------------------------------------|
*note: the G# (D string 7th fret) isaac plays a variation on that rhythm
in some videos ive seen him do it 4 times others 6 just watch the vids and
do what feels right when your playing it

e|---------------------------------------------------|
B|---------------------------------------------------|
G|--7p6h7p6------------------------------------------|
D|-----------9-666-6-666-7-6--4-4-4-4-4-4-4----------|
A|---------------------------------------------------|
E|---------------------------------------------------|

e|---------------------------------------------------|
B|---------------------------------------------------|
G|---------------------------------------------------|
D|--9-6----------------------------------------------|
A|------7-7-7-7-7-7-7-7-7-7-7-7-7-7-7-7--------------|
E|---------------------------------------------------|
Same thing goes for this note play however many feels right
Tap to rate this tab
# A B C D E F G H I J K L M N O P Q R S T U V W X Y Z