Song name
# A B C D E F G H I J K L M N O P Q R S T U V W X Y Z

Modest Mouse - Sleepwalkin chords

Highlighted       Show chord diagrams
----------------------------------------------------------------
            Sleepwalkin' - Modest Mouse
----------------------------------------------------------------
         
 INTRO

 C5/G  Em  Dm  Em     Em  Dm
---8~---3~-1/---3--4---3--1--|
---8~---5~-3/---5--6---5--3--|
-----------------------------|
-----------------------------|
-----------------------------|
-----------------------------|

Chords

C [x3201x]   Am [x02210]
Fm [100110]  G [320033]

 C             Am          Fm            G
--------------------------------------------------------|
--------1-----------1-------------1---------------------|
------0---0-------2---2---------1---1----------0--------|
----2-------2---2-------2-----0-------0------0---0------| x23 or so times,
--3-----------0----------------------------2-------0----| then lyrics enter
---------------------------1-------------3--------------|

C            Am
I fell in love and
 F              G
I needed a roadmap
C                 Am
To find out where you lived
 F           G
So excited now
C        Am         C           G
Sleepwalking, cause I'm sleepwalking
The white trash boys
Listen to the headphones
Blasting white noise
In the convenience store parking lot
I hung around there
Wasting my time
Hoping you'll stop by
Cause I'm sleepwalking, I'm sleepwalking
A mutual friend's parents
Left town for a week
So we raided their liquor stash
And walked down by the riverside
Sleepwalking, cause I'm sleepwalking



Tap to rate this tab
# A B C D E F G H I J K L M N O P Q R S T U V W X Y Z