Song name
# A B C D E F G H I J K L M N O P Q R S T U V W X Y Z

Modest Mouse - Guilty Cocker Spaniels tab

Standard tuning.
Tabbed by Dillon Hassler, reisgar42@hotmail.com.

Part 1
e|----------------------------------------------|
B|---15--------------15-------------------------|
G|------16-14-----------16-14----14-16-18-14~---|
D|------------16~-------------16----------------|
A|----------------------------------------------|
E|----------------------------------------------|

Part 2
e|------------------------------------------12~-|
B|---14------------14-----------------------14~-|
G|------16-14---------16-14----------14-----13~-|
D|------------14~-----------14-12-14----14--14~-|
A|------------------------------------------12~-|
E|------------------------------------------12~-|

I'm not too sure about the chord at the end, but I'm 99% certain about the rest of it.
Tap to rate this tab
 
# A B C D E F G H I J K L M N O P Q R S T U V W X Y Z