Song name
# A B C D E F G H I J K L M N O P Q R S T U V W X Y Z

Modest Mouse - Guilty Cocker Spaniels tab

I did not tab this, nor do I take credit. All credit goes to user
Modestmark7 from Modmouse (well, besides for me fixing up parts
of the tab :P)

e-----------------------------------------------------------|
B-----15----------------------15----------------------------|
G---------16--14------------------16--14-------14--16--18---|
D------------------16~~-------------------16----------------|
A-----------------------------------------------------------|
E-----------------------------------------------------------|

e-------------------------------------------------------------|
b-------------------------------------------------------------|
g--18--16--14------------18--16--14------14--16--18--19~~-----|
d------------------14~~-----------------14--------------------|
a-------------------------------------------------------------|
E-------------------------------------------------------------|

"Well i took off running at the greatest speed"
e---------------------------------------------------------|
b--10-10-10-12----10-10-10----10-10-12-----10-10-12-------|
g--11-11-11-11----11-11-11----11-11-11-----11-11-11-------|
d--12-12-12-12----12-12-12----12-12-12-----12-12-12-------|
a---------------------------------------------------------|
E---------------------------------------------------------|

"i didnt bother looking to either side of me"
e-----------------------------------------------------------|
b--10-10-10-12----10-10-10--------12--15- 12-10--12---------|
g--11-11-11-11----11-11-11----------------------------------|
d--12-12-12-12----12-12-12----------------------------------|
a-----------------------------------------------------------|
E-----------------------------------------------------------|

"i didnt see i just didnt see what was really goin on"
e--------------------------------------------------------------|
b--------------------------------------------------------------|
g--9--11-----------9--11--9------------------------------------|
d----------9~~---------------12--9--12-------------------------|
a--------------------------------------------------------------|
E--------------------------------------------------------------|

"the truth is stopped and the skyline rose"
e--------------------------------------------------------------|
b--10-10-10-12----10-10-10----10-10-12-----10-10-12------------|
g--11-11-11-11----11-11-11----11-11-11-----11-11-11------------|
d--12-12-12-12----12-12-12----12-12-12-----12-12-12------------|
a--------------------------------------------------------------|
E--------------------------------------------------------------|

"exchanging comfort for more fashionable clothes"
e--------------------------------------------------------------|
b--10-10-10-12----10-10-10----10-10-12-----10-10-12------------|
g--11-11-11-11----11-11-11----11-11-11-----11-11-11------------|
d--12-12-12-12----12-12-12----12-12-12-----12-12-12------------|
a--------------------------------------------------------------|
E--------------------------------------------------------------|

"id left the hills at this point in time to run on treadmills in a perfect line"
e-----------------------------------------------------------|
b-----------------------------------------------------------|
g--------------12-12-12-12----------------------------------|
d--9--9--9--9--9--9--9--9-------7-7-7-7-7-7-7-7-------------|
a--10-10-10-10-10-10-10-10------7-7-7-7-7-7-7-7-------------|
E-------------------------------5-5-5-5-5-5-5-5-------------|

"Salad days add up to daily shit"
e--------------------------------------------------------------|
b--10-10-10-12----10-10-10----10-10-12-----10-10-12------------|
g--11-11-11-11----11-11-11----11-11-11-----11-11-11------------|
d--12-12-12-12----12-12-12----12-12-12-----12-12-12------------|
a--------------------------------------------------------------|
E--------------------------------------------------------------|

"Sparkling imagineation till the sparks just quit"
e--------------------------------------------------------------|
b--10-10-10-12----10-10-10----10-10-12-----10-10-12------------|
g--11-11-11-11----11-11-11----11-11-11-----11-11-11------------|
d--12-12-12-12----12-12-12----12-12-12-----12-12-12------------|
a--------------------------------------------------------------|
E--------------------------------------------------------------|

"and if this is fun why am i bored with it well i will probobly never know"
e---------------------------------------------------------------------|
b---------------------------------------------------------------------|
g-------------------12-12-12-12---------------------------------------|
d---9--9---9---9---9---9--9--9------7-7-7-7-7-7-7-7-------------------|
a--10-10-10-10-10-10-10-10-----7-7-7-7-7-7-7-7------------------------|
E----------------------------------------5-5-5-5-5-5-5-5--------------|

"guilty cocker spaniels eating table scraps"
e--------------------------------------------------------------|
b--10-10-10-12----10-10-10----10-10-12-----10-10-12------------|
g--11-11-11-11----11-11-11----11-11-11-----11-11-11------------|
d--12-12-12-12----12-12-12----12-12-12-----12-12-12------------|
a--------------------------------------------------------------|
E--------------------------------------------------------------|

"well we rolled over how our masters clapped"
e--------------------------------------------------------------|
b--10-10-10-12----10-10-10--------12--15-12 -10--12------------|
g--11-11-11-11----11-11-11-------------------------------------|
d--12-12-12-12----12-12-12-------------------------------------|
a--------------------------------------------------------------|
E--------------------------------------------------------------|

"it felt so good we wanted more of that but when the program failed they
defensively laughed"
e--------------------------------------------------------------|
b--------------------------------------------------------------|
g--9--11-----------9--11--9------------------------------------|
d----------9~~---------------12--9--12-------------------------|
a--------------------------------------------------------------|
E--------------------------------------------------------------|

"we did things just how you asked"
e--------------------------------------------------------------|
b--10-10-10-12----10-10-10----10-10-12-----10-10-12------------|
g--11-11-11-11----11-11-11----11-11-11-----11-11-11------------|
d--12-12-12-12----12-12-12----12-12-12-----12-12-12------------|
a--------------------------------------------------------------|
E--------------------------------------------------------------|

"dont try taking us to task"
e--------------------------------------------------------------|
b--10-10-10-12----10-10-10----10-10-12-----10-10-12------------|
g--11-11-11-11----11-11-11----11-11-11-----11-11-11------------|
d--12-12-12-12----12-12-12----12-12-12-----12-12-12------------|
a--------------------------------------------------------------|
E--------------------------------------------------------------|

"you didn't bite face nope just a mask so happy Halloween"
e---------------------------------------------------------------------|
b---------------------------------------------------------------------|
g-------------------12-12-12-12---------------------------------------|
d---9--9---9---9---9---9--9--9------7-7-7-7-7-7-7-7-------------------|
a--10-10-10-10-10-10-10-10-----7-7-7-7-7-7-7-7------------------------|
E----------------------------------------5-5-5-5-5-5-5-5--------------|

e--------------------------------------------------------------|
b--10-10-10-12----10-10-10----10-10-12-----10-10-12------------|
g--11-11-11-11----11-11-11----11-11-11-----11-11-11------------|
d--12-12-12-12----12-12-12----12-12-12-----12-12-12------------|
a--------------------------------------------------------------|
E--------------------------------------------------------------|

e--------------------------------------------------------------|
b--10-10-10-12----10-10-10----10-10-12-----10-10-12------------|
g--11-11-11-11----11-11-11----11-11-11-----11-11-11------------|
d--12-12-12-12----12-12-12----12-12-12-----12-12-12------------|
a--------------------------------------------------------------|
E--------------------------------------------------------------|

e---------------------------------------------------------------------|
a---------------------------------------------------------------------|
g-------------------12-12-12-12---------------------------------------|
d---9--9---9---9---9---9--9--9------7-7-7-7-7-7-7-7-------------------|
a--10-10-10-10-10-10-10-10-----7-7-7-7-7-7-7-7------------------------|
E----------------------------------------5-5-5-5-5-5-5-5--------------|

"i drew a blank you put it in a frame"
e--------------------------------------------------------------|
b--10-10-10-12----10-10-10----10-10-12-----10-10-12------------|
g--11-11-11-11----11-11-11----11-11-11-----11-11-11------------|
d--12-12-12-12----12-12-12----12-12-12-----12-12-12------------|
a--------------------------------------------------------------|
E--------------------------------------------------------------|

"Wait what your wining you didn't say this was a game well"
e--------------------------------------------------------------|
b--10-10-10-12----10-10-10--------12--15-12-10--12-------------|
g--11-11-11-11----11-11-11-------------------------------------|
d--12-12-12-12----12-12-12-------------------------------------|
a--------------------------------------------------------------|
E--------------------------------------------------------------|

"ill just have to play and play till im out of cash"
e--------------------------------------------------------------|
b--------------------------------------------------------------|
g--9--11-----------9--11--9------------------------------------|
d----------9~~---------------12--9--12- 12~~delay~~~-----------|
a--------------------------------------------------------------|
E--------------------------------------------------------------|

"before i could spit it out i guess the words had burnt my mouth what can
I say?
e--------------------------------------------------------------|
b--------------------------------------------------------------|
g--9--11-----------9--11--9------------------------------------|
d----------9~~---------------12--9--12- 12~~delay~~~-----------|
a--------------------------------------------------------------|
E--------------------------------------------------------------|

"best of all, i laid it down so you could take it out of context
either way "
e-------------------------------------------------------------|
b-------------------------------------------------------------|
g--9--11-----------9--11--9-----------------------------------|
d----------9~~---------------12--9--12- 12~~delay~~~----------|
a-------------------------------------------------------------|
E-------------------------------------------------------------|

Play intro

e-------------------------------------------------------------|
b--8/10-10--8/10 -10--8/10-10--8/10-10--8/10-10---ect.--------|
g-------------------------------------------------------------|
d-------------------------------------------------------------|
a-------------------------------------------------------------|
E-------------------------------------------------------------|

"we said all along we deserve every bit and mostly we knew that the surprise
would quit but we got going and going just away with it
until everybody lost their mind"
e--------------------------------------------------------------|
b--------------------------------------------------------------|
g--------------------------------------------------------------|
d--7--7-7-7-7/---14--14-14-14-14-------------------------------|
a--x--x-x-x-x-----x----x--x--x---x-----------------------------|
E--5--5-5-5-5/---12--12-12-12-12-------------------------------|x2

e--------------------------------------------------------------|
b--------------------------------------------------------------|
g--------------------------------------------------------------|
d--9--9-9-9-9/----16--16-16-16-16------------------------------|
a--x--x-x--x-x-----x----x--x--x---x----------------------------|
E--7--7-7-7-7/----14--14-14-14-14------------------------------|x2

"directly behind me and ahead of the time but don't you worry, it'll fall
right in line yes everything's just fine, fine, fine no one's getting blamed
this time"
e--------------------------------------------------------------|
b--------------------------------------------------------------|
g--------------------------------------------------------------|
d--7--7-7-7-7/---14--14-14-14-14-------------------------------|
a--x--x-x-x-x-----x----x--x--x---x-----------------------------|
E--5--5-5-5-5/---12--12-12-12-12-------------------------------|x2

e---------------------------------------------------------------|
b---------------------------------------------------------------|
g---------------------------------------------------------------|
d--9--9-9-9-9/----16--16-16-16-16-------------------------------|
a--x--x-x--x-x-----x----x--x--x---x-----------------------------|
E--7--7-7-7-7/----14--14-14-14-14-------------------------------|x2

"blame me so blameless can we find a way to blame our way out
well i postdated the eulogy for every blameless body now, now
we are blamelessly teething on much more than we need
now, now now blamelessly teething "

e--------------------------------------------------------------|
b--------------------------------------------------------------|
g---12p11--9--7------------------------------------------------|
d------------------9--7--9--12---------------------------------|
a--------------------------------------------------------------|
E--------------------------------------------------------------|
x A lot

"[Isaac yells things ya'll can go ahead and figure that out =D]"
e--------------------------------------------------------------|
g--------------------------------------------------------------|
b--------------------------------------------------------------|
d--7--7-7-7-7/---14--14-14-14-14-------------------------------|
a--x--x-x-x-x-----x----x--x--x---x-----------------------------|
E--5--5-5-5-5/---12--12-12-12-12-------------------------------|x2

e---------------------------------------------------------------|
b---------------------------------------------------------------|
g---------------------------------------------------------------|
d--9--9-9-9-9/----16--16-16-16-16-------------------------------|
a--x--x-x--x-x-----x----x--x--x---x-----------------------------|
E--7--7-7-7-7/----14--14-14-14-14-------------------------------|x2
x a lot

do the intro here for the outro
Tap to rate this tab
# A B C D E F G H I J K L M N O P Q R S T U V W X Y Z