Song name
# A B C D E F G H I J K L M N O P Q R S T U V W X Y Z

Modest Mouse - Beach Side Property tab

Tabbed by: chrtes

Email: capslock44105@yahoo.com

Tuning: EADgbe


| /  slide up
| \  slide down
| h  hammer-on
| p  pull-off
| ~  vibrato
| +  harmonic
| x  Mute note





e|-----------------------------------------|
B|-----------------------------------------|
G|-----------------------------------------|
D|-----------------------------------------|
A|--11-11-8-11-11-8-11-11-8-11-11-11-11----|
E|--10-10---10-10---10-10---10-10-10-10----|



e|-------------------------------|
B|-------------------------------|
G|-------------------------------|
D|-12-12--15-15--13--12-12-12----|
A|-0--0---0--0---0---0--0--0-----|
E|-10-10--13-13--11--10-10-10----|



e|-------------------------------------|
B|-------------------------------------|
G|-------------------------------------|
D|-3/5-3-3/5-3-0-0--10-8-6------8-10---|
A|-------------------------8-10--------|
E|-------------------------------------|



e|------------------------------------|
B|------------------------------------|
G|-------12b-12b-12b-15-15-15-13-12---|
D|-12-12------------------------------|
A|-0--0-------------------------------|
E|-10-10------------------------------|



e|-------------------------------|2x
B|-------------------------------|
G|-------------------------------|
D|-12-12--15-15--13--12-12-12----|
A|-0--0---0--0---0---0--0--0-----|
E|-10-10--13-13--11--10-10-10----|



e|------------------------------------|
B|------------------------------------|
G|-------12b-12b-12b-15-15-15-13-12---|
D|-12-12------------------------------|
A|-0--0-------------------------------|
E|-10-10------------------------------|



e|-------------------------------|2x
B|-------------------------------|
G|-------------------------------|
D|-12-12--15-15--13--12-12-12----|
A|-0--0---0--0---0---0--0--0-----|
E|-10-10--13-13--11--10-10-10----|



e|------------------------------------|
B|------------------------------------|
G|-------12b-12b-12b-15-15-15-13-12---|
D|-12-12------------------------------|
A|-0--0-------------------------------|
E|-10-10------------------------------|



e|-------------------------------|2x
B|-------------------------------|
G|-------------------------------|
D|-12-12--15-15--13--12-12-12----|
A|-0--0---0--0---0---0--0--0-----|
E|-10-10--13-13--11--10-10-10----|



e|------------------------------------|
B|------------------------------------|
G|-------12b-12b-12b-15-15-15-13-12---|
D|-12-12------------------------------|
A|-0--0-------------------------------|
E|-10-10------------------------------|


e|-------------------------------|
B|-------------------------------|
G|-------------------------------|
D|-12-12--15-15--13--12-12-12----|
A|-0--0---0--0---0---0--0--0-----|
E|-10-10--13-13--11--10-10-10----|



e|-----------------------------------------------|
B|--------------------------8--------------------|
G|-12-7-5-4-5-4-0---0-4-5-7---7-5-4-5-4-5-4-0----|
D|-----------------------------------------------|
A|-----------------------------------------------|
E|-----------------------------------------------|



e|-----------------------------------------------------|4x
B|-----------------------------------------------------|
G|---7----7----7-----2----2b----2b----2-2-2-2p--5-5----|
D|-----7----7----7-----2----2b---2b---2-2-2-2p--5-5----|
A|--5----5----5-----0----0----0-------0-0-0-----3-3----|
E|-----------------------------------------------------|



e|------------------------------------------|3x
B|------------------------------------------|
G|------------------------------------------|
D|------------------------------------------|
A|-------3-----3----------5-----5-----------|
E|-1-1-1---1-1---1--3-3-3---3-3---3---5b----|



first guitar

e|-------------------------|
B|-------------------------|
G|-------------------------|
D|--2b-0-2----2b-0-2-------|
A|---------3---------3-----|
E|-------------------------|



e|--------------------|
B|--------------------|
G|--------------------|
D|-2-2-2--------------|
A|-------3-3-3-2-0----|
E|--------------------|

second guitar

e|------------------|
B|------------------|
G|------------------|
D|-2b--2b--2b--2b---|
A|------------------|
E|------------------|




first guitar

e|--------------|
B|--------------|
G|--2--2--2-----|
D|--3--3--3-----|
A|--3--3--3-----|
E|--1--1--1-----|


second guitar

e|---------------|
B|---------------|
G|--4---4---4----|
D|--0---0---0----|
A|--2---2---2----|
E|---------------|


e|------------------|
B|-----20+----20+---|
G|--19+----19+------|
D|------------------|
A|------------------|
E|------------------|


e|---------------|
B|---------------|
G|--4---4---4----|
D|--0---0---0----|
A|--2---2---2----|
E|---------------|


e|------------------|
B|-----20+----20+---|
G|--19+----19+------|
D|------------------|
A|------------------|
E|------------------|


e|---------------|
B|---------------|
G|--4---4---4----|
D|--0---0---0----|
A|--2---2---2----|
E|---------------|


e|-------------|
B|-----20+-----|
G|--19+--------|
D|-------------|
A|-------------|
E|-------------|


e|---------------|
B|---------------|
G|--4---4---4----|
D|--0---0---0----|
A|--2---2---2----|
E|---------------|


e|-----19+--------|
B|--19+----16+----|
G|----------------|
D|----------------|
A|----------------|
E|----------------|


e|---------------|
B|---------------|
G|--4---4---4----|
D|--0---0---0----|
A|--2---2---2----|
E|---------------|


e|-------20+-----|
B|---17+---------|
G|---------------|
D|---------------|
A|---------------|
E|---------------|




first guitar

e|-------------------------------------------------------------------------------|
B|-------------------------------------------------------------------------------|
G|-------------------------------------------------------------------------------|
D|--3-5-3-2-3-5-3-2-3-5-3-2---3-5-3-2-3-5-3-2-3-5-3-2---3-5-3-2-------------3-2--|
A|--------------------------3-------------------------3---------3p0-3p0-3p0------|
E|-------------------------------------------------------------------------------|


e|----------------------------------------------|
B|----------------------------------------------|
G|----------------------------------------------|
D|-3-5-3-2-3-5-3-2------------------------------|
A|-----------------3-5--5-3-2-3-5-3-2-5-3-2-3---|
E|----------------------------------------------|






first guitar

e|-------------------------|
B|-------------------------|
G|-------------------------|
D|--2b-0-2----2b-0-2-------|
A|---------3---------3-----|
E|-------------------------|



e|--------------------|
B|--------------------|
G|--------------------|
D|-2-2-2--------------|
A|-------3-3-3-2-0----|
E|--------------------|


e|---------------------------|
B|---------------------------|
G|---------------------------|
D|--2b-0-2----2b-0-2---------|
A|---------3---------3--5b---|
E|---------------------------|


e|-------------------------|
B|-------------------------|
G|-------------------------|
D|--2b-0-2----2b-0-2-------|
A|---------3---------3-----|
E|-------------------------|



e|---------------|
B|---------------|
G|---------------|
D|-2b------------|
A|----3b-2b-0----|
E|---------------|


second guitar

e|------------------|
B|------------------|
G|------------------|
D|-2b--2b--2b--2b---|
A|------------------|
E|------------------|




first guitar

e|--------------|
B|--------------|
G|--2--2--2-----|
D|--3--3--3-----|
A|--3--3--3-----|
E|--1--1--1-----|



e|--------------------------------------------------------------------------|
B|--------------------------------------------------------------------------|
G|--------------------------------------------------------------------------|
D|--3-5-3-2-3-5-3-2-3-5-3-2--------2-3-2h3-----3-5-3-2-3-5-3-2-3-5-3-2------|
A|--------------------------3--3-5---------3-5-------------------------3----|
E|--------------------------------------------------------------------------|



e|-----------------------------------------------------|
B|-----------------------------------------------------|
G|-----------------------------------------------------|
D|------2-3-2-3-2h3-2h3---3-5-3-2-3-5-3-2-3-5-3-2------|
A|--3-5-----------------3-------------------------3----|
E|-----------------------------------------------------|



do until song ends

e|-------------------------------|
B|-------------------------------|
G|-------------------------------|
D|--2-3-5--2-3-5--2-----2--------|
A|------------------3-5---3-5----|
E|-------------------------------|




second guitar

e|---------------|
B|---------------|
G|--4---4---4----|
D|--0---0---0----|
A|--2---2---2----|
E|---------------|


e|------------------|
B|---20+--20+--20---|
G|------------------|
D|------------------|
A|------------------|
E|------------------|


e|---------------|
B|---------------|
G|--4---4---4----|
D|--0---0---0----|
A|--2---2---2----|
E|---------------|


e|----------------|
B|--20+--20+------|
G|-----------19+--|
D|----------------|
A|----------------|
E|----------------|


e|---------------|
B|---------------|
G|--4---4---4----|
D|--0---0---0----|
A|--2---2---2----|
E|---------------|


e|------------------|
B|-----20+----20+---|
G|--19+----19+------|
D|------------------|
A|------------------|
E|------------------|


e|---------------|
B|---------------|
G|--4---4---4----|
D|--0---0---0----|
A|--2---2---2----|
E|---------------|


e|--------------|
B|---20+--20+---|
G|--------------|
D|--------------|
A|--------------|
E|--------------|



Tap to rate this tab
 
# A B C D E F G H I J K L M N O P Q R S T U V W X Y Z