Song name
# A B C D E F G H I J K L M N O P Q R S T U V W X Y Z

Modest Mouse - Sunspots In The House Of The Late Scapegoat tab

SONG: SUNSPOTS IN THE HOUSE OF THE LATE SCAPEGOAT
ARTIST: MODEST MOUSE
ALBUM: THE FRUIT THAT ATE ITSELF EP

Tabbed by ZLP

/=slide
o=open
x=muted


INTRO:

e|----------------|---------------------------|----------------|
B|----------------|---------------------------|----------------|
G|--7-----7-------|---------------------------|----------------|
D|----5-----5-----|10---10--------------------|--7-7---7-7-----|
A|7-----7-----7---|7---------7-10/12/10/9/7---|------------5---|
E|----------------|8-------8---------------(8)|7-----7-------7-|

e|-----------------------|
B|-----------------------|
G|-----------------------|
D|--10-------------------|
A|-----7---10-10/12/10/9-|
E|8------8---------------|

VERSE 1: Listen to the track for variations.

e|----------------|----------------|
B|----------------|----------------|
G|----7-------7---|----5-------5---|
D|----x-------x---|----5-------5---| x6
A|7-7-7-----7-7---|3-3-3-----3-3---|
E|----------------|----------------|

e|----------------|----------------|
B|----------------|5---------------|
G|----7-------7---|5---------------|
D|----x-------x---|5---------------|
A|7-7-7-----7-7---|3---------------|
E|----------------|----------------|

VERSE 2: Repeat verse 1

OUTRO: Play through and then alternate between playing bars 7+8 and 9+10 for the 
of the song. Isaac also bends up on the E octave (7 on the A and 9 on the G) for a measure at 
point during the song.

e|----------------|----------------|----------------|----------------|
B|----------------|----------------|----------------|----------------|
G|----------------|----------------|----------------|----------------|
D|----------------|----------------|----------------|----------------|
A|7-7-7-555-3-3-o-|5-5-5--5-33-3---|7-775-553-3-3---|5-5-5--5-33-3---|
E|----------------|----------------|----------------|----------------|

e|-----------------|----------------|----------------|----------------|
B|-----------------|----------------|----------------|----------------|
G|-----------------|----------------|9-997-775-5-5---|----------------|
D|-----------------|----------------|----------------|7-7-7--7-55-5---|
A|7-775-553-33/10--|5-5-5--5-33-3---|7-775-553-3-3---|----------------|
E|-----------------|----------------|----------------|5-5-5--5-33-3---|

e|----------------|----------------|
B|----------------|----------------|
G|9--97--75--12---|----------------|
D|----------------|7-7-7--7-55-5---|
A|7--75--53--10---|----------------|
E|----------------|5-5-5--5-33-3---|
Tap to rate this tab
 
# A B C D E F G H I J K L M N O P Q R S T U V W X Y Z