Song name
# A B C D E F G H I J K L M N O P Q R S T U V W X Y Z

Modest Mouse - Birds Vs Worms tab

Birds vs. Worms - Modest Mouse

Have fun !


add this note for the very beginning

E|--------------------|
B|--------------------|
G|----------14--------|
D|--------------------|
A|--------------------|
E|--------------------|

Intro 

E|-----------------------------------------------------------------------------------------------|
B|-----------------------------------------------------------------------------------------------|
G|---------------11-------11------------14-12-11-------------------------------------------------|
D|----------12-----12-12----12---14--12-----------14------------------------------------------11-|
A|----------------------------------------------------12--14-14-14-14-12--14-14-14-14--12--14----|
E|-----------------------------------------------------------------------------------------------|

then before the chorus add at the end of this

E|---------------------|
B|---------------------|
G|---------------------|
D|------14-14-14-14----|
A|---------------------|
E|---------------------|

then its ..

E|---------------------------------------|
B|---------------------------------------|
G|------------9-9-9-9-9-------4-4-4-4-4--|
D|---------------------------------------|
A|------------7-7-7-7-7-------2-2-2-2-2--|
E|---------------------------------------|




E|-----------------------------------------------------------------------------------------------|
B|-----------------------------------------------------------------------------------------------|
G|---------------11-------11------------14-12-11-------------------------------------------------|
D|----------12-----12-12----12---14--12-----------14------------------------------------------11-|
A|----------------------------------------------------12--14-14-14-14-12--14-14-14-14--12--14----|
E|-----------------------------------------------------------------------------------------------|

outro



E|---------------|
B|---------------|
G|---------------|
D|------12-------|
A|---------------|
E|---------------|
Tap to rate this tab
# A B C D E F G H I J K L M N O P Q R S T U V W X Y Z