Song name
# A B C D E F G H I J K L M N O P Q R S T U V W X Y Z

Modest Mouse - It Always Rains On A Picnic tab

Tabbed by: chrtes

Email: capslock44105@yahoo.com

Tuning: EADgbe


| /  slide up
| \  slide down
| h  hammer-on
| p  pull-off
| ~  vibrato
| +  harmonic
| x  Mute note


First guitar

e|--------5---5----------5---------5-----5-----5-------|
B|----5h7---7---7----5h7---7-7-5-----5-----5-----------|
G|--7--------------7-------------6-----6-----6---------|
D|-----------------------------------------------------|
A|-----------------------------------------------------|
E|-----------------------------------------------------|


e|--------5---5----------5---------5-----5-----5-------|4x
B|----5h7---7---7----5h7---7-7-5-----5-----5-----------|
G|--7--------------7-------------6-----6-----6---------|
D|-----------------------------------------------7-----|
A|-----------------------------------------------------|
E|-----------------------------------------------------|


e|--------5---5----------5---------5-----5-----5-----|3x
B|----5h7---7---7----5h7---7-7-5-----5-----5---------|
G|--7--------------7-------------6-----6-----6-------|
D|---------------------------------------------------|
A|---------------------------------------------------|
E|---------------------------------------------------|

e|--------5---5----------5---------5-----5-----5--------------------|3x
B|----5h7---7---7----5h7---7-7-5-----5-----5------------------------|
G|--7--------------7-------------6-----6-----6----------------------|
D|--------------------------------------------------0-0---0-0---0---|
A|------------------------------------------------5-----5-----5-----|
E|------------------------------------------------------------------|

e|-----------------------------------------------------------------------------------------|2x
B|-------------------------------------------------------------------------------10--------|
G|-6h7-7-7--6h7-7-7-9-9--6h7-7-7--6h7-7-7------6h7-7-7--6h7-7-7-9-9--6h7-7-7-6h7----9-7-6--|
D|----------------------------------------7-7----------------------------------------------|
A|-----------------------------------------------------------------------------------------|
E|-----------------------------------------------------------------------------------------|

e|-----------------------------------------------|3x
B|-----------------------------------------------|
G|-6h7-7-7--6h7-7-7-9-9--6h7-7-7--6h7-7-7--------|
D|----------------------------------------7-7----|
A|-----------------------------------------------|
E|-----------------------------------------------|


e|------------------------------------------------|
B|------------------------------------10----------|
G|-6h7-7-7--6h7-7-7-9-9--6h7-7-7--6h7----9-7-6-7--|
D|------------------------------------------------|
A|------------------------------------------------|
E|------------------------------------------------|


Second Guitar


e|-------------------------|
B|-------------------------|
G|--0-0-----0-0---0-0---0--|
A|--------5-----5-----5----|
E|-------------------------|

e|---------------------------------|2x
B|---------------------------------|
G|--7--9---7-6-6-6-6-7p6-----7-6---|
D|-------7---------------7-7-------|
A|---------------------------------|
E|---------------------------------|


e|--------------------|
B|--------------------|
G|-----0-0---0-0---0--|
A|---5-----5-----5----|
E|--------------------|

e|---------------------------------|3x
B|---------------------------------|
G|--7--9---7-6-6-6-6-7p6-----7-6---|
D|-------7---------------7-7-------|
A|---------------------------------|
E|---------------------------------|

e|--------------------|
B|--------------------|
G|-----0-0---0-0---0--|
A|---5-----5-----5----|
E|--------------------|


Also, im not sure if its only the bass playing this part. But it sounds just as good if 
choose to

throw it in while your playing.


e|-------------------|
B|-------------------|
G|-------------------|
D|--0-5-5-4-4-2-0----|
A|-------------------|
E|-------------------|
Tap to rate this tab
# A B C D E F G H I J K L M N O P Q R S T U V W X Y Z