Song name
# A B C D E F G H I J K L M N O P Q R S T U V W X Y Z

Modest Mouse - King Rat tab

    --- King Rat - Modest Mouse ---

This is my first tab :)

banjo intro for guitar:

e|---6------6----6-----6---3------3-------|
B|-----8----8------8---8-----6-4----6-----|
G|-5-----5-----5-----5---5------------5---|\rpt until midway through Verse 1
D|----------------------------------------|/
A|----------------------------------------|
E|----------------------------------------| 

Chords for first verse (these are played throughout the song,
all the riffs are arpeggiated or improvised versions of these shapes.)

  C-7   Eb   Ab7   G7
e|-3----3--------------|
B|-4----4--------------|
G|-3----3-----5----4---|
D|-5----5-----4----3---|
A|-3----6-----6----5---|
E|------------4----3---|

E-bow "violin" part for first verse before vocals come in:

e|-------------------------------------------|
B|-------------------------------------------|
G|-----------------------------11-9-4-6---6~-|
D|---7-9-11---7-6-4-2---7-9-11------------6~-|
A|-9--------5---------9-----------------9----|
E|-------------------------------------------|

"Deep Water" part

|------------------------------|
|------------------------------|
|------------------------------|
|------------------------------| And so on...
|-3-----3-------3---3---3---3--|
|---4p3---4p3-4---6---3---4----|

Questions?  Corrections?  Shoot me an email at lou_eg93@msn.com
Tap to rate this tab
# A B C D E F G H I J K L M N O P Q R S T U V W X Y Z