Song name
# A B C D E F G H I J K L M N O P Q R S T U V W X Y Z

Modest Mouse - Wild Pack Of Family Dogs tab

I tried to figure this one out by ear, so sorry if it's not perfect.

Riff 1:

E)-00---3---00-------------------------|
B)-11-0-3-0-11-0-1-1/3-/1-0------------|
G)-00---0---11-------------------------|
D)-22---0---22-------------------------|
A)-33---2---33-------------------------|
E)------3------------------------------|

Riff 2:

E)-0-0-0-3-3--|
B)-1-1-1-3-3--|
G)-0-0-0-0-0--|
D)-2-2-2-0-0--|
A)-3-3-3-2-2--|
E)-------3-3--|
Tap to rate this tab
 
# A B C D E F G H I J K L M N O P Q R S T U V W X Y Z