Song name
# A B C D E F G H I J K L M N O P Q R S T U V W X Y Z

Modest Mouse - From Point A To Point B tab

Tabbed by: chrtes

Email: capslock44105@yahoo.com

Tuning: EADgbe


| /  slide up
| \  slide down
| h  hammer-on
| p  pull-off
| ~  vibrato
| +  harmonic
| x  Mute note




This riff is followed by


e|--------------------------|
B|--------------------------|
G|--------------------------|
D|---5-5-5-0-2-0-2-0-2------|
A|---7-7-7-0-3-0-3-0-3------|
E|--------------------------|


These that are played in varation until

e|-----------|
B|-----------|
G|-----------|
D|--3-3--5---|
A|-----------|
E|-----------|



e|---------------|
B|---------------|
G|---------------|
D|--3-2-3-2------|
A|----------3----|
E|---------------|



e|-----------|
B|-----------|
G|-----------|
D|--3-3-3----|
A|-----------|
E|-----------|




This, the end of the song

e|--------------------------------------------------|7x
B|--------------------------------------------------|
G|---12-12-12---9-9-9---12-12-12---16-12-16-12------|
D|---0--0--0----0-0-0---0--0--0----0--0--0--0-------|
A|---10-10-10---7-7-7---10-10-10---14-10-14-10------|
E|--------------------------------------------------|




e|------------------------------------------------------------------------------------|
B|------------------------------------------------------------------------------------|
G|------------------------------------------------------------------------------------|
D|--12-10--12-10--8-7--8-7--3--3b------------12-10-12-15-12-10---12-10-8-7--8-7--3----|
A|---------------------------------3-----12----------------------------------------3--|
E|------------------------------------13----------------------------------------------|
Tap to rate this tab
 
# A B C D E F G H I J K L M N O P Q R S T U V W X Y Z