Song name
# A B C D E F G H I J K L M N O P Q R S T U V W X Y Z

Modest Mouse - Wild Packs Of Family Dogs tab

Modest Mouse
Wild Packs of Family Dogs
The Moon & Antarctica [Reissue]


e|----------------------------------------|
B|----------------------------------------|
G|----5-5-4-0--0-0-----5-5-4-5-7-5-4-0----|
D|----5-5-5-5--5-5-----5-5-5-5-*-5-5-5----|
A|-------------5-5-------------------5----|
E|----------------------------------------| x2

A wild pack of family dogs... (father got his gun)
e|--------------------|
B|--------------------|
G|---5--5--x--0--0----|
D|---5--5--x--5--5----|
A|------------5--5----|
E|--------------------|  x4

(after "ran away okay")
e|------------------|
B|------------------|
G|---5-5-4-0--0-0---|
D|---5-5-5-5--5-5---|
A|------------5-5---|
E|------------------|

A wild pack of family dogs... (my own dog ran away)
e|--------------------|
B|--------------------|
G|---5--5--x--0--0----|
D|---5--5--x--5--5----|
A|------------5--5----|
E|--------------------| x3

I didn't say much of anything at all ...
e|-----------------|
B|-----------------|
G|---5-5-4-0--0----|
D|---5-5-5-5--5----|
A|------------5----|
E|-----------------| x3

e|----------------------------------------|
B|----------------------------------------|
G|----5-5-4-0--0-0-----5-5-4-5-7-5-4-0----|
D|----5-5-5-5--5-5-----5-5-5-5-*-5-5-5----|
A|-------------5-5-------------------5----|
E|----------------------------------------| x2

A wild pack of family dogs
e|--------------------|
B|--------------------|
G|---5--5--x--0--0----|
D|---5--5--x--5--5----|
A|------------5--5----|
E|--------------------|

Came running through the yard as my little sister plays ...
e|------------------|
B|------------------|
G|---5-5-5-5-0--0---|
D|---5-5-5-4-5--5---|
A|-----------5--5---|
E|------------------| x5

My mother's crying blood dust now ...
e|---------------|
B|---------------|
G|---5-5-5-5-0---|
D|---5-5-5-4-5---|
A|-----------5---|
E|---------------| x3

e|---------------------------------------|
B|---------------------------------------|
G|----5-5-4-0--0-0-----5-5-4-5-7-5-4-0---|
D|----5-5-5-5--5-5-----5-5-5-5-*-5-5-5---|
A|-------------5-5-------------------5---|
E|---------------------------------------| x2

My daddy quit his job today
e|--------------------|
B|--------------------|
G|---5--5--x--0--0----|
D|---5--5--x--5--5----|
A|------------5--5----|
E|--------------------|

Well I guess he was fired but that's okay ...
e|-------------------|
B|-------------------|
G|---5-5-5-5-0--0----|
D|---5-5-5-4-5--5----|
A|-----------5--5----|
E|-------------------| x5

(after "floating up towards the glowing sky")
e|------------------|
B|------------------|
G|---5-5-4-0--0-x---|
D|---5-5-5-5--5-x---|
A|------------5-x---|
E|------------------|

Now they'll receive their reward...
e|----------------|
B|----------------|
G|---5-5-4-0--0---|
D|---5-5-5-5--5---|
A|------------5---|
E|----------------| x3

~~~~~~~~~~~~~~~~~~~~~~~~~~~~~~~~~

Author's note:

G|--7  ... can be   G|--7  ... or   G|--7-|
D|--*  ... can be   D|--5  ... or   D|--7-|

... depending on your playing style (even though I believe 7-5 is the right one).  Just 
the G-string finger to the 7.

I tried to tab this in a way that it sounds the same as the real song but is also easy to play.
I think this tab can pass as the song as-is, but any and all corrections are appreciated.
Tap to rate this tab
 
# A B C D E F G H I J K L M N O P Q R S T U V W X Y Z