Song name
# A B C D E F G H I J K L M N O P Q R S T U V W X Y Z

Modest Mouse - Heart Cooks Brain tab

Tabbed by: chrtes

Email: capslock44105@yahoo.com

Tuning: EADgbe


| /  slide up
| \  slide down
| h  hammer-on
| p  pull-off
| ~  vibrato
| +  harmonic
| x  Mute note

First Guitar


e|--15-15-15-15-15-15-15-15-15-15-15-15-15---|
B|-------------------------------------------|
G|-------------------------------------------|
D|-------------------------------------------|
A|-------------------------------------------|
E|-------------------------------------------|


e|-----------------------------------------|
B|-----------------------------------------|
G|----12+--12+--12+--12+------12+----------|
D|-------------------------12+---12+--9-9--|
A|--12+--12+--12+--12+--12+----------------|
E|-----------------------------------------|


e|----------------------------------------|4x
B|----------------------------------------|
G|----12+--12+--12+--12+------12+---------|
D|-------------------------12+---12+--14--|
A|--12+--12+--12+--12+--12+---------------|
E|----------------------------------------|

e|-------------------------------|5x
B|-------------------------------|
G|--7-7-7/-9-9-9--7-7-7--7-------|
D|--0-0-0/-0-0-0--0-0-0--0-------|
A|--5-5-5/-7-7-7--5-5-5--5-------|
E|-------------------------------|

e|----------------------------------------------------------------|
B|----------------------------------------------------------------|
G|--7-7-7/-9-9-9--9---7/12--7-7-7--7/12--7/12--7-7-7-7--5-5-5-----|
D|--0-0-0/-0-0-0--0---0/0---0-0-0--0/0---0/0---0-0-0-0--0-0-0-----|
A|--5-5-5/-7-7-7--7---5/10--5-5-5--5/10--5/10--5-5-5-5--3-3-3-----|
E|----------------------------------------------------------------|

e|---------------------------------------------------------------|
B|---------------------------------------------------------------|
G|--7-7-7/9-9-9--9-9-9--7-7-7----7-7-7-7/12-7--9-7-7-7--5-5-5----|
D|--0-0-0/0-0-0--0-0-0--0-0-0----0-0-0-0/0--0--0-0-0-0--0-0-0----|
A|--5-5-5/7-7-7--7-7-7--5-5-5----5-5-5-5/10-5--7-5-5-5--3-3-3----|
E|---------------------------------------------------------------|


e|---------------------------------------------------------------|
B|---------------------------------------------------------------|
G|--7-7-7---7/12--7-7-7-7--5-5-5----7-7-7/9-9-9--9-9-9--7-7-7----|
D|--0-0-0---0/0---0-0-0-0--0-0-0----0-0-0/0-0-0--0-0-0--0-0-0----|
A|--5-5-5---5/10--5-5-5-5--3-3-3----5-5-5/7-7-7--7-7-7--5-5-5----|
E|---------------------------------------------------------------|


e|---------------------------------------------------------|
B|---------------------------------------------------------|
G|--7-7-7/9-9-9--9-9-9--7-7-7----7-7-7--7/12--7-7-7--5-----|
D|--0-0-0/0-0-0--0-0-0--0-0-0----0-0-0--0/0---0-0-0--0-----|
A|--5-5-5/7-7-7--7-7-7--5-5-5----5-5-5--5/10--5-5-5--3-----|
E|---------------------------------------------------------|

e|---------------------------------------------------------------|
B|---------------------------------------------------------------|
G|--7-7-7---7/12--7-7-7-7--5-5-5----7-7-7/9-9-9--9-9-9--7-7-7----|
D|--0-0-0---0/0---0-0-0-0--0-0-0----0-0-0/0-0-0--0-0-0--0-0-0----|
A|--5-5-5---5/10--5-5-5-5--3-3-3----5-5-5/7-7-7--7-7-7--5-5-5----|
E|---------------------------------------------------------------|


e|-------------------------------|
B|-------------------------------|
G|--7-7-7/-9-9-9--7-7-7--7-------|
D|--0-0-0/-0-0-0--0-0-0--0-------|
A|--5-5-5/-7-7-7--5-5-5--5-------|
E|-------------------------------|

e|------------------------------|
B|------------------------------|
G|----12+--12+--12+--12+--------|
D|------------------------------|
A|--12+--12+--12+--12+--12+-----|
E|------------------------------|

e|-------------------------------------------|
B|-------------------------------------------|
G|-------------------------------------------|
D|-------------------------------------------|
A|----7+--------7+-----------7+--7+--7+------|
E|--7+--7+-7+-7+--7+-7+----7+--7+--7+--7+----|


e|-------------------------------|7x
B|-------------------------------|
G|--7-7-7/-9-9-9--7-7-7--7-------|
D|--0-0-0/-0-0-0--0-0-0--0-------|
A|--5-5-5/-7-7-7--5-5-5--5-------|
E|-------------------------------|


e|--------------------------------------------|
B|--------------------------------------------|
G|--7-7-7/-9-9-9---7/12--7/12--7/12---7-7-7---|
D|--0-0-0/-0-0-0---0/0---0/0---0/0----0-0-0---|
A|--5-5-5/-7-7-7---5/10--5/10--5/10---5-5-5---|
E|--------------------------------------------|


e|-------------------------------|2x
B|-------------------------------|
G|--7-7-7/-9-9-9--7-7-7--7-------|
D|--0-0-0/-0-0-0--0-0-0--0-------|
A|--5-5-5/-7-7-7--5-5-5--5-------|
E|-------------------------------|


Second Guitar

IMO I think this part has no structure. I've listened to the song over and over and it 
so you could play whatever on this second guitar.


e|-------------------|
B|--------------8----|
G|--0-7-9-0-7-9---9--|
D|-------------------|
A|-------------------|
E|-------------------|


There's also some harmonics and the main riff played partially at the end of the song 
go practice.
Tap to rate this tab
# A B C D E F G H I J K L M N O P Q R S T U V W X Y Z