Song name
# A B C D E F G H I J K L M N O P Q R S T U V W X Y Z

Modest Mouse - Dramamine tab

tabbed by joe
email: jeaux_zuf@hotmail.com
*basic knowledge of tablature is assumed
		
Intro:
e|----------------------------------------------|
B|--12b---------------12b--------12--------12---|
G|----------12b-12b-----------12----12--12---12-|
D|------12b---------------12b-------------------| 
A|----------------------------------------------|
E|----------------------------------------------|

e|------------------------------------|
B|--12b---------------12b-------------|
G|----------12b-12b-----------12b-12b-|
D|------12b---------------12b---------|
A|------------------------------------|
E|------------------------------------|

e|----------------------------------------------|
B|--12b---------------12b--------12--------12---|
G|----------12b-12b-----------12----12--12---12-|
D|------12b---------------12b-------------------| 
A|----------------------------------------------|
E|----------------------------------------------|

e|------------------|
B|--12b-------------|
G|----------12b-12b-|
D|------12b---------|
A|------------------|
E|------------------|


Verse:
e|----------------------------------------------|
B|-----------7/8--------------------------------|
G|--9--7--9-------9--7--------------------------|
D|----------------------9--7------7--9----------| 
A|----------------------------11--------11------|
E|----------------------------------------------|

e|----------------------------------------------|
B|-----------8----------------------------------|
G|--9--7--9-------9--7--9--7--0--7--5--0--------|
D|----------------------------------------------| 
A|----------------------------------------------|
E|----------------------------------------------|

e|----------------------------------------------|
B|-----------8----------------------------------|
G|--9--7--9-------9--7--------------------------|
D|----------------------9--7------7--9----------| 
A|----------------------------11--------11------|
E|----------------------------------------------|

e|----------------------------------------------|
B|-----------8----------------------------------|
G|--9--7--9-------9--7--9--7--0--7--5--0--------|
D|----------------------------------------------| 
A|----------------------------------------------|
E|----------------------------------------------|

e|----------------------------------------------|
B|----------------------------------------------|
G|----------------------------------------------|
D|--9--7------7--9--12/5------------------------| 
A|--------11------------------------------------|
E|----------------------------------------------|

e|----------------------------------------------|
B|-----------8----------------------------------|
G|--9--7--9-------9--7--------------------------|
D|----------------------9--7------7--9----------| 
A|----------------------------11--------11------|
E|----------------------------------------------|

e|----------------------------------------------|
B|-----------8----------------------------------|
G|--9--7--9-------9--7--9--7--0--7--5--0--------|
D|----------------------------------------------| 
A|----------------------------------------------|
E|----------------------------------------------|

e|----------------------------------------------|
B|-----------8----------------------------------|
G|--9--7--9-------9--7--------------------------|
D|----------------------9--7------7--9----------| 
A|----------------------------11--------11------|
E|----------------------------------------------|

e|----------------------------------------------|
B|-----------8----------------------------------|
G|--9--7--9-------9--7/12-----------------------|
D|----------------------------------------------| 
A|----------------------------------------------|
E|----------------------------------------------|


Chorus:
e|---------------|
B|---------------|
G|-9--7--12------|
D|-9--7--12------|
A|-7--5--10------|
E|---------------|x8


Verse:
e|----------------------------------------------|
B|-----------8----------------------------------|
G|--9--7--9-------9--7--------------------------|
D|----------------------9--7------7--9----------| 
A|----------------------------11--------11------|
E|----------------------------------------------|

e|----------------------------------------------|
B|-----------8----------------------------------|
G|--9--7--9-------9--7--9--7--0--7--5--0--------|
D|----------------------------------------------| 
A|----------------------------------------------|
E|----------------------------------------------|

e|----------------------------------------------|
B|-----------8----------------------------------|
G|--9--7--9-------9--7--------------------------|
D|----------------------9--7------7--9----------| 
A|----------------------------11--------11------|
E|----------------------------------------------|

e|----------------------------------------------|
B|-----------8----------------------------------|
G|--9--7--9-------9--7/12-----------------------|
D|----------------------------------------------| 
A|----------------------------------------------|
E|----------------------------------------------|


Chorus:
e|---------------|
B|---------------|
G|-9--7--12------|
D|-9--7--12------|
A|-7--5--10------|
E|---------------|x7

e|-------------------------------|
B|-------------------------------|
G|-9-9999-7-7777-12-12121212-----|
D|-9-9999-7-7777-12-12121212-----|
A|-7-7777-5-5555-10-10101010-----|
E|-------------------------------|x7

e|------------------|
B|------------------|
G|-9b--7b--12b------|
D|-9b--7b--12b------|
A|-7b--5b--10b------|
E|------------------|x2


Solo:
e|----------------------------------------------------------------|
B|--16--14--12--11--12--11----------------------------------------|
G|--------------------------12--12--10--9--10--9--10--12--10------|
D|------------------------------------------------------------10--| 
A|----------------------------------------------------------------|
E|----------------------------------------------------------------|x2

e|--------------------------------------------------|
B|--------------------------------------------------|
G|--16--14------16--14------12--12------12--12------|
D|----------14----------14----------14----------14--| 
A|--------------------------------------------------|
E|--------------------------------------------------|

e|------------------------------------------------------|
B|------------------------------------------------------|
G|--16--14------16--14------12--12------12--12----------|
D|----------14----------14----------14----------14--12--| 
A|------------------------------------------------------|
E|------------------------------------------------------|(Repeat as needed)


Interlude:
e|-------------------|
B|--12b--------------|
G|----------12b-12b--|
D|------12b----------|
A|-------------------|
E|-------------------|x4


Verse:
e|----------------------------------------------|
B|-----------7/8--------------------------------|
G|--9--7--9-------9--7--------------------------|
D|----------------------9--7------7--9----------| 
A|----------------------------11--------11------|
E|----------------------------------------------|

e|----------------------------------------------|
B|-----------8----------------------------------|
G|--9--7--9-------9--7--9--7--0--7--5--0--------|
D|----------------------------------------------| 
A|----------------------------------------------|
E|----------------------------------------------|

e|----------------------------------------------|
B|-----------7/8--------------------------------|
G|--9--7--9-------9--7--------------------------|
D|----------------------9--7------7--9----------| 
A|----------------------------11--------11------|
E|----------------------------------------------|

e|----------------------------------------------|
B|-----------7/8--------------------------------|
G|--9--7--9-------9--7--9--7--0--7--5--0--------|
D|----------------------------------------------| 
A|----------------------------------------------|
E|----------------------------------------------|

e|----------------------------------------------|
B|----------------------------------------------|
G|----------------------------------------------|
D|--9--7------7--9--12/5------------------------| 
A|--------11------------------------------------|
E|----------------------------------------------|


Outro:
e|----------------------------------------------|
B|----------------------------------------------|
G|--9--7--0--7--5--0----------------------------|
D|--------------------9--7--0--7--5--0----------| 
A|----------------------------------------------|
E|----------------------------------------------|x2

e|----------------------------------------------|
B|----------------------------------------------|
G|--9--7--0--7--5--0----------------------------|
D|--------------------9--7------7--12/5---------| 
A|--------------------------11------------------|
E|----------------------------------------------|

e|------------|
B|------------|
G|------------|
D|--12/5------| 
A|------------|
E|------------|x3
Tap to rate this tab
 
# A B C D E F G H I J K L M N O P Q R S T U V W X Y Z