Song name
# A B C D E F G H I J K L M N O P Q R S T U V W X Y Z

Modest Mouse - Here It Comes tab

Here It Comes
Modest Mouse
Everywhere and His Nasty Parlour Tricks


e|-------------7-5-------------|-------------7-5-------------|
B|---5h7p5---5-----5h7p5-0-7---|---5h7p5---5-----5h7p5-0-3---|
G|---------7-------------------|---------7-------------------|
D|-----------------------------|-----------------------------|  x2
A|-----------------------------|-----------------------------|
E|-----------------------------|-----------------------------| 

Walk to your house on my lunch break...
e|-----------------------------|-----------------------|
B|-----------------------------|-----------------------|
G|---9-9-9-11-11-11-4--4-4-4---|---9-9-9-11-11-11-7----|
D|---0-0-0-0--0--0--0--0-0-0---|---0-0-0-0--0--0--0----|  x4
A|-----------------------------|-----------------------|
E|-----------------------------|-----------------------|

                                           Grass grows green...
e|-------------7-5-------------|-------------7-5-------------|
B|---5h7p5---5-----5h7p5-0-7---|---5h7p5---5-----5h7p5-0-3---|
G|---------7-------------------|---------7-------------------|
D|-----------------------------|-----------------------------|  x2
A|-----------------------------|-----------------------------|
E|-----------------------------|-----------------------------| 

You'd always told me life's a dam that breaks, well...
e|-----------------------------|-----------------------|
B|-----------------------------|-----------------------|
G|---9-9-9-11-11-11-4--4-4-4---|---9-9-9-11-11-11-7----|
D|---0-0-0-0--0--0--0--0-0-0---|---0-0-0-0--0--0--0----|  x4
A|-----------------------------|-----------------------|
E|-----------------------------|-----------------------|

                                           Keep it clean...
e|-------------7-5-------------|------------7-5-------------|
B|---5h7p5---5-----5h7p5-0-7---|--5h7p5---5-----5h7p5-0-3---|
G|---------7-------------------|--------7-------------------|
D|-----------------------------|----------------------------|  x2
A|-----------------------------|----------------------------|
E|-----------------------------|----------------------------| 

The empty promise-makers said...
e|-----------------------------|-----------------------|
B|-----------------------------|-----------------------|
G|---9-9-9-11-11-11-4--4-4-4---|---9-9-9-11-11-11-7----|
D|---0-0-0-0--0--0--0--0-0-0---|---0-0-0-0--0--0--0----|  x6
A|-----------------------------|-----------------------|
E|-----------------------------|-----------------------|


e|-------------7-5-------------|-------------7-5-------------|
B|---5h7p5---5-----5h7p5-0-7---|---5h7p5---5-----5h7p5-0-3---|
G|---------7-------------------|---------7-------------------|
D|-----------------------------|-----------------------------|  x3
A|-----------------------------|-----------------------------|
E|-----------------------------|-----------------------------| 
Tap to rate this tab
 
# A B C D E F G H I J K L M N O P Q R S T U V W X Y Z