Song name
# A B C D E F G H I J K L M N O P Q R S T U V W X Y Z

Modest Mouse - Guilty Cocker Spaniels tab

Tabbed by: chrtes

Email: capslock44105@yahoo.com

Tuning: EADgbe


| /  slide up
| \  slide down
| h  hammer-on
| p  pull-off
| ~  vibrato
| +  harmonic
| x  Mute note
| b  Bend





e|--10-7--------10-7---------7-9-----------------------------------------10------|
B|---------7-----------7--10-----10--------------------------------------10------|
G|-------7-----------7----------------14-12----9---14-12----9----9-11-9--11------|
D|------------------------------------------11-----------11---11---------0-------|
A|-------------------------------------------------------------------------------|
E|-------------------------------------------------------------------------------|



You put these parts in order yourself

e|------------------------------------------------------------------------|
B|------------------------------------------------------------------------|
G|--14--16-14-14-14-16-14--14-16-14-14-19-16-14--9-11-9--9-11-9-9--4/7----|
D|--0---0--0--0--0--0--0---0--0--0--0--0--0--0---0-0--0--0-0--0-0--0/0----|
A|--12--14-12-12-12-14-12--12-14-12-12-17-14-12--7-9--7--7-9--7-7--2/5----|
E|------------------------------------------------------------------------|



e|----------------------------------------------------------------------------------|
B|----------------------------------------------------------------------------------|
G|--14--16-14-14-14-16-14--14-16-14-14-19-16-14---12-12-12-12-12--14-14-14-14-14----|
D|--0---0--0--0--0--0--0---0--0--0--0--0--0--0----0--0--0--0--0---0--0--0--0--0-----|
A|--12--14-12-12-12-14-12--12-14-12-12-17-14-12---10-10-10-10-10--12-12-12-12-12----|
E|----------------------------------------------------------------------------------|


Then

e|------------------------------------------------------------------------------------|
B|------------------------------------------------10-0-10-0-10--12-12-12-10-10-10-----|
G|----4/7---14-12-11-9----11-9-9-11-9-9-11-9------------------------------------------|
D|----0/0------------------------------------9-12-------------------------------------|
A|----2/5-----------------------------------------------------------------------------|
E|------------------------------------------------------------------------------------|




e|--10-7--------10-7---------7-9-----------------------------------------10------|
B|---------7-----------7--10-----10--------------------------------------10------|
G|-------7-----------7----------------14-12----9---14-12----9----9-11-9--11------|
D|------------------------------------------11-----------11---11---------0-------|
A|-------------------------------------------------------------------------------|
E|-------------------------------------------------------------------------------|





e|-------------------|23x
B|-------------------|
G|--11h12h14---------|
D|-------------------|
A|-------------------|
E|-------------------|




e|------------------------------------------------------------------------------------|
B|------------------------------------------------------------------------------------|
G|------------------------------------------------------------------------------------|
D|--7-7-7--b14-14-14---7-7-7--b14-14-14---9-9-9--b16-16-16--9-9-9--b16-16-16--11-7----|
A|--0-0-0--b0--0--0----0-0-0--b0--0--0----0-0-0--b0--0--0---0-0-0--b0--0--0---0--0----|
E|--5-5-5--b12-12-12---5-5-5--b12-12-12---7-7-7--b14-14-14--7-7-7--b14-14-14--9--5----|



e|----------------------------|14x
B|----------------------------|
G|--12-11---------------------|
D|--------14-12---------------|
A|--------------14-12-14-12---|
E|----------------------------|


e|----------------------------------------------------|
B|----------------------------------------------------|
G|--12-11----12-11----12-11----12-11------------------|
D|--------14-------14-------14-------14--12-11-12-14--|
A|----------------------------------------------------|
E|----------------------------------------------------|



e|------------------------------------------------------------------------------------|3x
B|------------------------------------------------------------------------------------|
G|------------------------------------------------------------------------------------|
D|--7-7-7--b14-14-14---7-7-7--b14-14-14---9-9-9--b16-16-16--9-9-9--b16-16-16--11-7----|
A|--0-0-0--b0--0--0----0-0-0--b0--0--0----0-0-0--b0--0--0---0-0-0--b0--0--0---0--0----|
E|--5-5-5--b12-12-12---5-5-5--b12-12-12---7-7-7--b14-14-14--7-7-7--b14-14-14--9--5----|



e|---------------------------------------------------------------------------------------|
B|---------------------------------------------------------------------------------------|
G|---------------------------------------------------------------------------------------|
D|--7-7-7--b14-14-14---7-7-7--b14-14-14---9-9-9--b16-16-16--9-9-9--b16-16-16--11-9--7----|
A|--0-0-0--b0--0--0----0-0-0--b0--0--0----0-0-0--b0--0--0---0-0-0--b0--0--0---0--0--0----|
E|--5-5-5--b12-12-12---5-5-5--b12-12-12---7-7-7--b14-14-14--7-7-7--b14-14-14--9--7--5----|




e|--10-7--------10-7---------7-9----------------------------------------|
B|---------7-----------7--10-----10-------------------------------------|
G|-------7-----------7----------------14-12----9---14-12----9----9------|
D|------------------------------------------11-----------11---11--------|
A|----------------------------------------------------------------------|
E|----------------------------------------------------------------------|



e|--10-7--------10-7---------7-9-----------------------------------------10------|
B|---------7-----------7--10-----10--------------------------------------10------|
G|-------7-----------7----------------14-12----9---14-12----9----9-11-9--11------|
D|------------------------------------------11-----------11---11---------0-------|
A|-------------------------------------------------------------------------------|
E|-------------------------------------------------------------------------------|





And there you go, Im pretty sure this correct. Now go practice.

Tap to rate this tab
 
# A B C D E F G H I J K L M N O P Q R S T U V W X Y Z