Modest Mouse - King Rat tab

Song: King Rat
Artist: Modest Mouse
Album: Fire It Up/Dashboard Singles
Tabbed by: J Goddard (joestar636@hotmail.com)

This tab is just for the intro to the song. A couple of tabs have already been done for 
but I find this method a whole lot easier to play when fingerpicking.

e|-------------------|
B|----11--------11---|
G|-------12-----12---|  x 4
D|-10-------10--10---|
A|-------------------|
E|-------------------|

e|-------------------------------------------------------------------------|
B|---------8-----------11----------8------------------------8----------11--|
G|----8------10-8------12-----8------10-8--------8b----8------10-8-----12--|
D|-10---10---------10--10--10---10---------10b-8----10---10--------10--10--|
A|-------------------------------------------------------------------------|
E|-------------------------------------------------------------------------|

Just play this twice and then go into the verse on:

e|-------------------|
B|----11--------11---|
G|-------12-----12---|  x 2
D|-10-------10--10---|
A|-------------------|
E|-------------------|

That's it. Or at least, that's how it sounds in the song. Anyway, if you see any 
or if your are confused or whatever, e-mail me on the address above.

Thanks :)
Tap to rate this tab
 
# A B C D E F G H I J K L M N O P Q R S T U V W X Y Z