Modest Mouse - Teeth Like Gods Shoeshine tab

Tabbed by: chrtes

Email: capslock44105@yahoo.com

Tuning: EADgbe


| /  slide up
| \  slide down
| h  hammer-on
| p  pull-off
| ~  vibrato
| +  harmonic
| x  Mute note

Intro, these two parts are the intro for the first guitar.


e|---------------------------------------------|
B|------5---------------------5----------------|
G|---------------------------------------------|
D|--4-4------------------4--4------------------|
A|--------0-0-0--5p5p--------------------------|
E|--------------------5---------0-0-0-3-4-5----|

e|-----------------------------|
B|-----------------------------|
G|-----------------------------|
D|--5+---15+--17+--15+--17+----|
A|--5+---15+--17+--15+--17+----|
E|-----------------------------|


second guitar, these notes are not in order but the second guitar plays these notes at 
parts in the intro.

e|------------------------------------|
B|------------------------------------|
G|---7b----------15b----12~-----18b---|
D|---7b-------------------------------|
A|---------14b------------------------|
E|------------------------------------|

then you can decide which part your gonna play

e|----------------------|
B|----------------------|
G|--11---7---11--9------|
D|--0----0---0---0------|
A|--9----5---9---7------|
E|----------------------|

e|-----------------------|6x
B|-----------------------|
G|--9--9-----------------|
D|--0--0---5/7-----------|
A|--7--7---5/7-----------|
E|---------3/5-----------|


e|-----------------------------------|
B|-----------------------------------|
G|------2-------------0-----0--------|
D|----0--------0----0----------------|
A|--2--------4------------5----------|
E|---------5------3-----3------------|


e|--------------------------------|
B|--------------------------------|
G|--------------------------------|
D|--------7+-----------19b-19b----|
A|-----5+-------5+----------------|
E|--7+-------7+----16+------------|


e|---------------------------------------|6x
B|---------------------------------------|
G|------2-------------0-----0--1/2-------|
D|----0--------0----0--------------------|
A|--2--------4---------------------------|
E|---------5------3-----3----------------|


e|---------------|7x
B|---------------|
G|--4------------|
D|--4--7--5------|
A|--2--7--5------|
E|-----5--3------|


Do these parts 2x


e|-------------------------|3x
B|-------------------------|
G|--11--9--7--6--7--6------|
D|--0---0--0--0--0--0------|
A|--9---7--5--4--5--4------|
E|-------------------------|

e|-----------------------|1x
B|-----------------------|
G|-----------------------|
D|-----------------------|
A|-0--4h5p---0--4h5p-----|
E|-----------------------|


e|------------------------|
B|------------------------|
G|--11---11/12\11----12---|
D|--0----0-/0\0------0----|
A|--9----9/10\9------10---|
E|------------------------|

e|-------------------------|3x
B|-------------------------|
G|--11--9--7--6--7--6------|
D|--0---0--0--0--0--0------|
A|--9---7--5--4--5--4------|
E|-------------------------|

e|-----------------------|2x
B|-----------------------|
G|-----------------------|
D|-----------------------|
A|-0--4h5p---0--4h5p-----|
E|-----------------------|

e|-------------------------------------|5x
B|-------------------------------------|
G|------2-------------0-----0--1/2-----|
D|----0--------0----0------------------|
A|--2--------4-------------------------|
E|---------5------3-----3--------------|

e|-----------------------------------|
B|-----------------------------------|
G|------2-------------0-----0--------|
D|----0--------0----0----------------|
A|--2--------4------------5----------|
E|---------5------3-----3------------|

e|--------------------------------|4x
B|--------------------------------|
G|--------------------------------|
D|--------7+-----------19b-19b----|
A|-----5+-------5+----------------|
E|--7+-------7+----16+------------|

e|------------------|7x
B|------------------|
G|--4---------------|
D|--4--7--5---------|
A|--2--7--5---------|
E|-----5--3---------|

e|----------------------|
B|----------------------|
G|--11---11/12\11-------|
D|--0----0-/0\0---------|
A|--9----9/10\9---------|
E|----------------------|

e|-----------------------|
B|-----------------------|
G|--11--9--7--6--7--6----|
D|--0---0--0--0--0--0----|
A|--9---7--5--4--5--4----|
E|-----------------------|


e|-----------------------|
B|-----------------------|
G|-----------------------|
D|-----------------------|
A|-0--4h5p---0--4h5p-----|
E|-----------------------|

e|--------------------|
B|--------------------|
G|--11---11/12\11-----|
D|--0----0-/0\0-------|
A|--9----9/10\9-------|
E|--------------------|

e|--------------------|
B|--------------------|
G|--11--9--7---12-----|
D|--0---0--0---0------|
A|--9---7--5---10-----|
E|--------------------|


e|----------------|
B|----------------|
G|--11--9--7~-----|
D|--0---0--0~-----|
A|--9---7--5~-----|
E|----------------|


you'll need effects for this to sound right, probably a whammy.

e|-------------|
B|-------------|
G|--4----------|
D|----5-5~-----|
A|-------------|
E|-------------|

e|------------------|
B|------------------|
G|--11--9--7/12-----|
D|--0---0--0/0------|
A|--9---7--5/10-----|
E|------------------|
Tap to rate this tab
 
# A B C D E F G H I J K L M N O P Q R S T U V W X Y Z