Song name
# A B C D E F G H I J K L M N O P Q R S T U V W X Y Z

Modest Mouse - The View tab

Tabbed by: chrtes

Email: capslock44107@yahoo.com

Tuning: EADgbe


| /  slide up
| \  slide down
| h  hammer-on
| p  pull-off
| ~  vibrato
| +  harmonic
| x  Mute note
| b  Bend




e|-----------------|2x
B|-----------------|
G|-2/5--5-5--------|
D|-2/5--5-5--------|
A|-----------------|
E|-----------------|




e|------------------|
B|------------------|
G|--5-3-3-2-2--2----|
D|--5-3-3-2-2--2----|
A|------------------|
E|------------------|




e|-------------------------|
B|-----1-----3-------------|
G|--2--0--4--2--2-2-2-2----|
D|--2-----4-----3-3-3-3----|
A|-------------------------|
E|-------------------------|




e|--------15--------12--------13-----|2x
B|-----13--------13--------13--------|
G|--14--------14--------14-----------|
D|-----------------------------------|
A|-----------------------------------|
E|-----------------------------------|




e|--------------------------------------------------------------|
B|--18-17-18-17--15-15--12-12-12--12-13-12-13-12-13-12----------|
G|-----------------------------------------------------12-------|
D|--------------------------------------------------------------|
A|--------------------------------------------------------------|
E|--------------------------------------------------------------|


e|-----------------------------------------------------------------|
B|--18-17-18-17--15-15--12-12-12--12-13-12-13-12-15-15-15-15-------|
G|-----------------------------------------------------------------|
D|-----------------------------------------------------------------|
A|-----------------------------------------------------------------|
E|-----------------------------------------------------------------|



e|-------------------------|
B|-----1-----3-------------|
G|--2--0--4--2--2-2-2-2----|
D|--2-----4-----3-3-3-3----|
A|-------------------------|
E|-------------------------|




e|--------15--------12--------13-----|2x
B|-----13--------13--------13--------|
G|--14--------14--------14-----------|
D|-----------------------------------|
A|-----------------------------------|
E|-----------------------------------|




e|--------------------------------------------------------------|
B|--18-17-18-17--15-15--12-12-12--12-13-12-13-12-13-12----------|
G|-----------------------------------------------------12-------|
D|--------------------------------------------------------------|
A|--------------------------------------------------------------|
E|--------------------------------------------------------------|


e|-----------------------------------------------------------------|
B|--18-17-18-17--15-15--12-12-12--12-13-12-13-12-15-15-15-15-------|
G|-----------------------------------------------------------------|
D|-----------------------------------------------------------------|
A|-----------------------------------------------------------------|
E|-----------------------------------------------------------------|


Play these  two parts twice


e|-----------------------------------------|
B|--12b--8b--------------------12--8-------|
G|-----------9b----------------------9-----|
D|-----------------------------------------|
A|---------------5\3-3--8-7-5--------------|
E|-----------------------------------------|


e|-----------------------------------|2x
B|-----------------------------------|
G|-----------------------------------|
D|-----------------------------------|
A|--3/8---7-7-7-7-7-7--10-5-3-3------|
E|-----------------------------------|





e|------------------------|3x
B|---1--------------------|
G|-------5--4--7--5-------|
D|---2---3--2--0--0-------|
A|---3---------5--3-------|
E|------------------------|


Play this to song end

e|--------------------------------------------------------------|
B|--18-17-18-17--15-15--12-12-12--12-13-12-13-12-13-12----------|
G|-----------------------------------------------------12-------|
D|--------------------------------------------------------------|
A|--------------------------------------------------------------|
E|--------------------------------------------------------------|


e|-----------------------------------------------------------------|
B|--18-17-18-17--15-15--12-12-12--12-13-12-13-12-15-15-15-15-------|
G|-----------------------------------------------------------------|
D|-----------------------------------------------------------------|
A|-----------------------------------------------------------------|
E|-----------------------------------------------------------------|
Tap to rate this tab
 
# A B C D E F G H I J K L M N O P Q R S T U V W X Y Z