Song name
# A B C D E F G H I J K L M N O P Q R S T U V W X Y Z

Modest Mouse - Dark Center Of The Universe tab

"Dark Center of the Universe" by Modest Mouse from the album Moon and Antarctica.
Tabbed by Andyrogers1212@gmail.com

--Standard Tuning: EADGBe--
--Difficulty: Beginner--

--Key: /\ slide up & down
     b  bend
     h  hammer on
     p  pull off
     t~ tremelo



Intro riff:

e|--0-0-0-0-0-0-0-0--0-0-0-0-0-0-0-0--0-0-0-0-0-0-0-0--0-0-0---0---0---0---0---0----------------|
B|--5-5-5-5-5-5-5-5--3-3-3-3-3-3-3-3--2-2-2-2-2-2-2-2--0-0-7p5-7p5-7p5-7p5-7p5-7p5--------------|
G|----------------------------------------------------------------------------------------------|
D|----------------------------------------------------------------------------------------------|
A|----------------------------------------------------------------------------------------------|
E|----------------------------------------------------------------------------------------------|

Verse riff (same rhythm as intro riff):

e|--0-0-7-0-0-0-7-0--0-0-5-0-0-0-5-0--0-0-4-0-0-0-4-0--0-0-0---0---0---0---0---0----------------|
B|--5-5-5-5-5-5-5-5--3-3-3-3-3-3-3-3--2-2-2-2-2-2-2-2--0-0-7p5-7p5-7p5-7p5-7p5-7p5--------------|
G|----------------------------------------------------------------------------------------------|
D|----------------------------------------------------------------------------------------------|
A|----------------------------------------------------------------------------------------------|
E|----------------------------------------------------------------------------------------------|

Chorus:

e|--0-0-7p6p5p0-0-0-7p6p5p0--0-0-5p4p3p0-0-0-5p4p3p0--0-0-4p3p2p0-0-0-4p3p2p0--0-0-0-0----------|
B|--5-5---------5-5----------3-3---------3-3----------2-2---------2-2----------0-0-0-0----------|
G|----------------------------------------------------------------------------------------------|
D|----------------------------------------------------------------------------------------------|
A|----------------------------------------------------------------------------------------------|
E|----------------------------------------------------------------------------------------------|

Outro (play the intro but without the open "e" string till there's 18 secs left of the song):

e|--------------------------------6-9-7-6-9-7-6-9-6-9-7-6-9-7-6-9-7-6-9-7-6-9-7-6-9-7-6-4-6-7-8-|
B|--5(x8)-3(x8)-2(x8)-0-0-7p5(x6)---------------------------------------------------------------|
G|----------------------------------------------------------------------------------------------|
D|----------------------------------------------------------------------------------------------|
A|----------------------------------------------------------------------------------------------|
E|----------------------------------------------------------------------------------------------|

Really easy and fun song to play, and one of my favorite songs by Modest Mouse.
Tap to rate this tab
 
# A B C D E F G H I J K L M N O P Q R S T U V W X Y Z