Song name
# A B C D E F G H I J K L M N O P Q R S T U V W X Y Z

Modest Mouse - Styrofoam Boots tab

Intro:

e|---3-----3-----------|----3-----3---------------|----3------3-------------|
B|---0-----0-----------|----0-----0---------------|----0------0-------------|
G|---0-----0-------2p0-|----0-----0-2p0-----------|----0------0--------2p0--|
D|--------------2p0----|----------------2p0-(2p0)-|----------------2p0------|
A|2-----2-----2--------|-2------2-----------------|-2------2-----2----------|
E|3-----3-----3--------|-3------3-----------------|-3------3-----3----------|

(Fill:)

|-------------------------|
|-------------------------|
|-2p0---------------2p0---|
|-----3p0-2p0-2p0-3-------| x2
|-------------------------|
|-------------------------|

*The (2p0) is played the second time around


Verses:

Verse A
e|-3-3-3-33-33-3-|-33-33-3-33-33-3-|-3-3-3-33-33-3-|-33-33-3-33-33-3-|
A|-3-3-3-33-33-0-|-33-33-3-33-33-3-|-3-3-3-33-33-0-|-33-33-3-33-33-3-|
D|-0-0-0-00-00-0-|-00-00-0-00-00-0-|-0-0-0-00-00-0-|-00-00-0-00-00-0-|
G|-2-2-2-22-22-2-|-22-22-2-22-22-2-|-0-0-0-00-00-0-|-00-00-0-00-00-0-|
B|-2-2-2-22-22-2-|-22-22-2-22-22-2-|-2-2-2-22-22-2-|-22-22-2-22-22-2-|
E|-0-0-0-00-00-0-|-00-00-0-00-00-0-|-3-3-3-33-33-3-|-33-33-3-33-33-3-|

Verse B
e|----3-----3-----3-----3-|----3-----3-----3-----3-|
B|----0-----0-----0-----0-|----0-----0-----0-----0-|
G|----0-----0-----0-----0-|----0-----0-----0-----0-|
D|------------------------|------------------------| (Usually x2)
A|-2-----2-----2-----2----|-2-----2-----2-----2----|
E|-3-----3-----3-----3----|-3-----3-----3-----3----|

Verse C (x1)
(Same as Intro)

*Verse A: The strumming pattern changes at various places throughout the song. Most the 
time it's the same as above,
but just listen for it and you'll be fine. Repeats for different lengths throughout the 
song. Usually its x2.

*Verse B: Usually repeats twice. Occasionally the fill gets played at the end of Verse B.
Again, just listen for it. The song ends on this.

*Verse C: The intro gets played again at about 1:10 in the song. Just gets played once.



Let me know if there's anything missing.
-Poodles.
Tap to rate this tab
 
# A B C D E F G H I J K L M N O P Q R S T U V W X Y Z