Song name
# A B C D E F G H I J K L M N O P Q R S T U V W X Y Z

Modest Mouse - Ocean Breathes Salty tab

Tabbed by: chrtes

Email: capslock44107@yahoo.com

Tuning: EADgbe


| /  slide up
| \  slide down
| h  hammer-on
| p  pull-off
| ~  vibrato
| +  harmonic
| x  Mute note
| b  Bend




e|---------------------|2x
B|--12~---12b----------|
G|---------------------|
D|---------------------|
A|---------------------|
E|---------------------|



e|-------------------------------------------------------------------|
B|----------------------10-------------------------------------------|
G|--12-9-12-9-9-9-12-12----9---9-9-9--------------------9------------|
D|------------------------------------12-12-12-12-12-12---10--9------|
A|--------------------------------------------------------------10---|
E|-------------------------------------------------------------------|


e|---------------------------------------------|2x
B|---------------------------------------------|
G|----------0--------0---------0-------4-------|
D|----5-4-0-----5-0------5-4-0-----5-0----5----|
A|--7---------3--------7---------3-------------|
E|---------------------------------------------|



e|-------------------------------------------------------------------|
B|----------------------10-------------------------------------------|
G|--12-9-12-9-9-9-12-12----9---9-9-9--------------------9------------|
D|------------------------------------12-12-12-12-12-12---10--9------|
A|--------------------------------------------------------------10---|
E|-------------------------------------------------------------------|


--------------------

This isnt how this part is played but its the same notes in the chorus. Play this
part in varations ending on the added part.


e|--------------------------------------------------------------------------------|
B|----------------------10-----------------------------------------12----12-------|
G|--12-9-12-9-9-9-12-12----9---9-9-9--------------------9-------------12----12----|
D|------------------------------------12-12-12-12-12-12---10--9-------------------|
A|--------------------------------------------------------------10----------------|
E|--------------------------------------------------------------------------------|

---------------------


e|--------------------------------------------------|
B|----8-7---10------------8-7-------8-----8---------|
G|--9-----7----7--7-7-9-9-----7---7-----7-----------|
D|------------------------------5-----5-----5-------|
A|--------------------------------------------------|
E|--------------------------------------------------|


e|---------------------------------------|
B|----8-7---10------------8-7------------|
G|--9-----7----7--7-7-9-9-----7----------|
D|------------------------------5b-------|
A|---------------------------------------|
E|---------------------------------------|



e|------------------------------------------------|
B|----8-7---10------------8-7-------8-----8-------|
G|--9-----7----7--7-7-9-9-----7---7-----7---------|
D|------------------------------5-----5-----5-----|
A|------------------------------------------------|
E|------------------------------------------------|


e|------------------------------------------------|
B|----8-7---10------------8-7---------5b----------|
G|--9-----7----7--7-7-9-9-----7-7-7-7----7-5------|
D|------------------------------------------------|
A|------------------------------------------------|
E|------------------------------------------------|



e|-----------------------------------------------------|
B|-----------------------------------------------------|
G|---12p9p12p9-7--9p7p9p7--5-7p5p7p5--4-5p4p5p45p4-----|
D|-------------------------------------------------5---|
A|-----------------------------------------------------|
E|-----------------------------------------------------|



e|------------------------|
B|------------------------|
G|-----------7--9--7--5---|
D|--5--7--9---------------|
A|------------------------|
E|------------------------|
Tap to rate this tab
 
# A B C D E F G H I J K L M N O P Q R S T U V W X Y Z