Song name
# A B C D E F G H I J K L M N O P Q R S T U V W X Y Z

Modest Mouse - Four Fingered Fisherman tab

 Tabbed by: Ryan Gilmour
Email: ryangilmour@comcast.net
Standard Tuning

Part 1: (4th time through let the open G ring, letting it become the frist note of the verse)
e----------------------------------------------------------------------------|
B---3---0--------------0--3------3---0---------------------------------------|
G----------3------3---------------------3------5-4-0--2---0------------------|  4x
D----------------------------------------------------------------------------|
A----------------------------------------------------------------------------|
E----------------------------------------------------------------------------|

Part 2: Verse: You're in the back seat and you say to yourself; "Okay it doesn't matter anyway."
e---------------------------------------------------------------------------|
B---------------------------------------------------------------------------|
G---0------2------4------5------7---7---7---7---7--5-4-5-4/0----------------|
D---------------------------------------------------------------------------|  3x
A---------------------------------------------------------------------------|
E---------------------------------------------------------------------------|

Back to this...
e----------------------------------------------------------------------------|
B---3---0--------------0--3------3---0---------------------------------------|
G----------3------3---------------------3------5-4-0--2---0------------------|  3x
D----------------------------------------------------------------------------|
A----------------------------------------------------------------------------|
E----------------------------------------------------------------------------|

Verse again
e---------------------------------------------------------------------------|
B---------------------------------------------------------------------------|
G---0------2------4------5------7---7---7---7---7--5-4-5-4/0----------------|
D---------------------------------------------------------------------------|  3x
A---------------------------------------------------------------------------|
E---------------------------------------------------------------------------|

Outro:
e---------------------------------------------------------------------------|
B---------------------------------------------------------------------------|
G---2/7-7-7-7-7-7-5-5-5-5-5-5-4-4-4-4-4-4-2-2-2-2-2-2-----------------------|
D---------------------------------------------------------------------------|  3x
A---------------------------------------------------------------------------|
E---------------------------------------------------------------------------|

e---------------------------------------------------------------------------|
B------------------5-5-5-5-5-5--7-7-7-7-7-7-8-8-8-7-7-7---------------------|
G---2/7-7-7-7-7-7-----------------------------------------------------------|
D---------------------------------------------------------------------------|  3x
A---------------------------------------------------------------------------|
E---------------------------------------------------------------------------|

End note is the D played on the second string third fret!

Fun one to play
Tap to rate this tab
# A B C D E F G H I J K L M N O P Q R S T U V W X Y Z