Song name
# A B C D E F G H I J K L M N O P Q R S T U V W X Y Z

Modest Mouse - Ionizes And Atomizes tab

-----------------------------------------------------------------
Ionizes and Atomizes - Modest Mouse
-----------------------------------------------------------------
Tabbed by: the Piper
Email: jiraoxys7@hotmail.com

Tuning:EADGBe (EADG)

BASS

Riff 1
G|-------------------12----------------14^17--^14-|
D|----------------------14/15-14-12-15---^19--^15-|
A|-13-13-13-13-12-12------------------------------|
E|------------------------------------------------|

Riff 2
G|-------15-14-------14-15-|
D|-------------------------|
A|-13-12-------13-12-------|
E|-------------------------|

 That's pretty much it for all of the bass.


GUITAR

Intro Harmoics (these are prety much what they do throughout
the song so just listen for a pattern)
e|-------|
B|-5+r3+-|
G|-5+r3+-|
D|-------|
A|-------|
E|-------|

Riff 1
e|----------------------------------------------|
B|----------------------------------------------|
G|----------------------------------------------|
D|-7h8-8-8-7h8-7-7-7/14-15-17-19-17\15-19----10-|
A|----------------------------------------13----|
E|----------------------------------------------|

Riff 2 "solo"
e|-------------------------------------------------------------|
B|-10/11-11-11-11\10-10-10-10-10/15-15-15-15-15\13-13-13-13-13-|
G|--x--x--x--x--x--x--x--x--x--x--x--x--x--x--x--x--x--x--x--x-|
D|--7/-9--9--9--9\-7--7--7--7--7/12-12-12-12-12\10-10-10-10-10-|
A|-------------------------------------------------------------|
E|-------------------------------------------------------------|

Rif 3 "fade out with this riff"
e|-------------------------------------------|
B|-------------------------------------------|
G|-------------------------------------------|
D|-7-8-10---7-8-10---7-8-10------------------|
A|--------8--------8--------8-10-10-10h12p10-|
E|-------------------------------------------|

Good song, really easy and not too much riffs to remeber.

| /  slide up
| \  slide down
| h  hammer-on
| p  pull-off
| ~  vibrato
| +  harmonic
| x  Mute note

Tap to rate this tab
# A B C D E F G H I J K L M N O P Q R S T U V W X Y Z