Song name
# A B C D E F G H I J K L M N O P Q R S T U V W X Y Z

Modest Mouse - Whenever You Breathe Out I Breathe In tab

Whenever You Breath Out I Breathe In (Positive/Negative)
from Building Nothing Out of Something
by Modest Mouse
tabbed by TheApathy

Reading Tabs:
/ slide up   \slide down <> harmonic  b  bend/tremolo bar

This tab has pretty much everything in the song, down to all of the bends, so its 
pretty long, so if you'd rather just learn with the song a quick skim should be 
enough for most decent guitarists who are familiar with the song.

Intro 
e|-----------------------------------------------------------------------------------|
B|--------------------------------------------------------------------3-3-3----------|
G|------------------------------------------0---0-0-0-0-0-0--0--0-0-0-0-0-0----------|
D|---5----------------(0)-(0)-0--0-0-0--0-0-2---2-2-2-2-2-2--2--2-2-2-2-2-2-2--------|
A|-------3p2----------(2)-(2)-2--2-2-2--2-2-3---3-3-3-3-3-3--3--3-3-3-3-3-3----------|
E|-------------3------(3)-(3)-3--3-3-3--3-3------------------------------------------|

You can't really hear the () notes but they're played in live versions

e|-----------------------------------------------------------------------------------|
B|-------------------------------------------------------3--3-3-3-3-3-3--------------|
G|--------------------------------------0---0-0-0-0-0-0--0--0-0-0-0-0-0--------------|
D|---5----------------0-0-0--0-0-0--0-0-2---2-2-2-2-2-2--2--2-2-2-2-2-2-2------------|
A|-------3p2---2------2-2-2--2-2-2--2-2-3---3-3-3-3-3-3--3--3-3-3-3-3-3--------------|
E|-------------3------3-3-3--3-3-3--3-3----------------------------------------------|

e|-----------------------------------------------------------------------------------|
B|----------------------------------------------------------3-3-3-3-3-3--------------|
G|--------------------------------------0---0-0-0-0-0-0--0--0-0-0-0-0-0--------------|
D|---5----------------0-0-0--0-0-0--0-0-2---2-2-2-2-2-2--2--2-2-2-2-2-2-2------------|
A|-------3p2---2------2-2-2--2-2-2--2-2-3---3-3-3-3-3-3--3--3-3-3-3-3-3--------------|
E|-------------3------3-3-3--3-3-3--3-3----------------------------------------------|

Verse 1 (0:39)

e|-----------------------------------------------------------------------------------|
B|-----------------------------------------------------------------------------------|
G|-----------------------------------------------------------------------------------|
D|---5----------------------------------------------------------5---7---5------------|
A|-------3p2-----------------------2---2/---9---9\--4---4---3------------------------|
E|-------------3-----------------3---3--/10--10--\5---4------------------------------|

e|-----------------------------------------------------------------------------------|
B|-----------------------------------------------------------------------------------|
G|-----------------------------------------------------------------------------------|
D|--------------------------------------5---7---5------------------------------------|
A|-----2---2/---9---9\--4h5h7p5p4---3------------------------------------------------|
E|---3---3--/10--10--\5--------------------------------------------------------------|

e|-----------------------------------------------------------------------------------|
B|-----------------------------------------------------------------------------------|
G|-----------------------------------------------------------------------------------|
D|-----------------------------------------5---7---5---------------------------------|
A|-----2---2/---9h10h12p10p9---4---4---3---------------------------------------------|
E|---3---3--/10--------------5---5---------------------------------------------------|

e|-----------------------------------------------------------------------------------|
B|-----------------------------------------------------------------------------------|
G|-----------------------------------------------------------------------------------|
D|----------------------------------5--------5/7-------------------------------------|
A|-----2---2/---9---9\--4---4---3-------3--------------------------------------------|
E|---3---3--/10--10--\5---5----------------------------------------------------------|

e|-----------------------------------------------------------------------------------|
B|-----------------------------------------------------------------------------------|
G|-----------------------------------------------------------------------------------|
D|----------------------------------5---7---5----------------------------------------|
A|-----2---2/---9---9\--4---4---3----------------------------------------------------|
E|---3---3--/10--10--\5---5----------------------------------------------------------|

Chorus/Jam (1:28)

e|-----------------------------------------------------------------------------------|
B|---3---3---3---3--3/10---10---10---10---10---5---5---5---5-------------------------|
G|---0---0---0---0--0/0----0----0----0----0----0---0---0---0----5--5---5/7--7--------|
D|---0---0---0---0--0/0----0----0----0----0----0---0---0---0----5--5---5/7--7--------|
A|---2---2---2---2--2/9----9----9----9----9----4---4---4---4----3--3---3/5--5--------|
E|---3---3---3---3--3/10---10---10---10---10---5---5---5---5-------------------------| x5

Bridge (2:10)

e|-----------------------------------------------------------------------------------|
B|-----------------------------------------------------------------------------------|
G|-----------------------------------------------------------------------------------|
D|----9--7--9--7--5--7--5--7--12--10--12--10--9h10p9h10p9----------------------------|
A|--------------------------------------------------------12-10-9--------------------|
E|-----------------------------------------------------------------------------------|

e|-----------------------------------------------------------------------------------|
B|-----------------------------------------------------------------------------------|
G|-----------------------------------------------------------------------------------|
D|----9--7--9--7--5--7--5--7---------------------------------------------------------|
A|-----------------------------------------------------------------------------------|
E|-----------------------------8--8--8/7----3----------------------------------------|

e|-----------------------------------------------------------------------------------|
B|-----------------------------------------------------------------------------------|
G|--------------------------------------------12------12----12-12-12----12-----------|
D|----9--7--9--7--5--7--5--7--12--10--12--10-------------12----------12----12--------|
A|-----------------------------------------------------------------------------------|
E|-----------------------------------------------------------------------------------|

e|-----------------------------------------------------------------------------------|
B|-----------------------------------------------------------------------------------|
G|-----------------------------------------------------------------------------------|
D|----9--7--9--7--5--7--5--7---------------------------------------------------------|
A|-----------------------------------------------------------------------------------|
E|-----------------------------8--8--8/7----3----------------------------------------|

Chorus/Jam 2 (2:42)

e|-----------------------------------------------------------------------------------|
B|---3---3---3---3--3/10---10---10---10---10---5---5---5---5-------------------------|
G|---0---0---0---0--0/0----0----0----0----0----0---0---0---0----5--5---5/7--7--------|
D|---0---0---0---0--0/0----0----0----0----0----0---0---0---0----5--5---5/7--7--------|
A|---2---2---2---2--2/9----9----9----9----9----4---4---4---4----3--3---3/5--5--------|
E|---3---3---3---3--3/10---10---10---10---10---5---5---5---5-------------------------| x2

e|-----------------------------------------------------------------------------------|
B|---3---3---3---3--3/10---10---10---10---10---5---5---5---5-------------------------|
G|---0---0---0---0--0/0----0----0----0----0----0---0---0---0----<5>b---<7>b----------|
D|---0---0---0---0--0/0----0----0----0----0----0---0---0---0----<5>b---<7>b----------|
A|---2---2---2---2--2/9----9----9----9----9----4---4---4---4-------------------------|
E|---3---3---3---3--3/10---10---10---10---10---5---5---5---5-------------------------| 

Yes! Harmonic bends(/tremolo bar action, lets be real).

e|-----------------------------------------------------------------------------------|
B|---3---3---3---3--3/10---10---10---10---10---5---5---5---5-------------------------|
G|---0---0---0---0--0/0----0----0----0----0----0---0---0---0----5--5---5/7--7--------|
D|---0---0---0---0--0/0----0----0----0----0----0---0---0---0----5--5---5/7--7--------|
A|---2---2---2---2--2/9----9----9----9----9----4---4---4---4----3--3---3/5--5--------|
E|---3---3---3---3--3/10---10---10---10---10---5---5---5---5-------------------------|

e|-----------------------------------------------------------------------------------|
B|---3---3---3---3--3/10---10---10---10---10---5---5---5---5-------------------------|
G|---0---0---0---0--0/0----0----0----0----0----0---0---0---0----<5>b----<7>----------|
D|---0---0---0---0--0/0----0----0----0----0----0---0---0---0----<5>b----<7>----------|
A|---2---2---2---2--2/9----9----9----9----9----4---4---4---4-------------------------|
E|---3---3---3---3--3/10---10---10---10---10---5---5---5---5-------------------------|

e|-----------------------------------------------------------------------------------|
B|---3---3---3---3--3/10---10---10---10---10---5---5---5---5-------------------------|
G|---0---0---0---0--0/0----0----0----0----0----0---0---0---0----<5>b---<12>----------|
D|---0---0---0---0--0/0----0----0----0----0----0---0---0---0----<5>b---<12>----------|
A|---2---2---2---2--2/9----9----9----9----9----4---4---4---4-------------------------|
E|---3---3---3---3--3/10---10---10---10---10---5---5---5---5-------------------------| 

Bridge 2 (3:30)
e|-----------------------------------------------------------------------------------|
B|-----------------------------------------------------------------------------------|
G|-----------------------------------------------------------------------------------|
D|----9--7--9--7--5--7--5--7--12--10--12--10--9h10p9h10p9----------------------------|
A|--------------------------------------------------------12-10-9--------------------|
E|-----------------------------------------------------------------------------------|

e|-----------------------------------------------------------------------------------|
B|-----------------------------------------------------------------------------------|
G|-----------------------------------------------------------------------------------|
D|----9--7--9--7--5--7--5--7---------------------------------------------------------|
A|-----------------------------------------------------------------------------------|
E|-----------------------------8--8--8/7----3----------------------------------------|

e|-----------------------------------------------------------------------------------|
B|-----------------------------------------------------------------------------------|
G|--------------------------------------------12------12----12-12-12----12-----------|
D|----9--7--9--7--5--7--5--7--12--10--12--10-------------12----------12----12--------|
A|-----------------------------------------------------------------------------------|
E|-----------------------------------------------------------------------------------|

e|-----------------------------------------------------------------------------------|
B|-----------------------------------------------------------------------------------|
G|-----------------------------------------------------------------------------------|
D|----9--7--9--7--5--7--5--7---------------------------------------------------------|
A|-----------------------------------------------------------------------------------|
E|-----------------------------8-8-8-8-7-7-7-7-8-8-8-7-3-----------------------------|

Chorus/Jam 3 (4:02)
e|-----------------------------------------------------------------------------------|
B|---3---3---3---3--3/10---10---10---10---10b---5---5---5---5------------------------|
G|---0---0---0---0--0/0----0----0----0----0b----0---0---0---0----5--5---5/7--7-------|
D|---0---0---0---0--0/0----0----0----0----0b----0---0---0---0----5--5---5/7--7-------|
A|---2---2---2---2--2/9----9----9----9----9b----4---4---4---4----3--3---3/5--5-------|
E|---3---3---3---3--3/10---10---10---10---10b---5---5---5---5------------------------|

e|-----------------------------------------------------------------------------------|
B|---3---3---3---3--3/10---10---10---10---10---5---5---5---5-------------------------|
G|---0---0---0---0--0/0----0----0----0----0----0---0---0---0--<5>b-<7>b--<5>b-<7>b--|
D|---0---0---0---0--0/0----0----0----0----0----0---0---0---0--<5>b-<7>b--<5>b-<7>b--|
A|---2---2---2---2--2/9----9----9----9----9----4---4---4---4-------------------------|
E|---3---3---3---3--3/10---10---10---10---10---5---5---5---5-------------------------| 

e|-----------------------------------------------------------------------------------|
B|---3---3---3---3--3/10---10---10---10---10---5---5---5---5-------------------------|
G|---0---0---0---0--0/0----0----0----0----0----0---0---0---0----5--5---5/7--7--------|
D|---0---0---0---0--0/0----0----0----0----0----0---0---0---0----5--5---5/7--7--------|
A|---2---2---2---2--2/9----9----9----9----9----4---4---4---4----3--3---3/5--5--------|
E|---3---3---3---3--3/10---10---10---10---10---5---5---5---5-------------------------|

e|-----------------------------------------------------------------------------------|
B|---3---3---3---3--3/10---10b--10---10---10---5b--5---5---5-------------------------|
G|---0---0---0---0--0/0----0b---0----0----0----0b--0---0---0----5b-------7--7--------|
D|---0---0---0---0--0/0----0b---0----0----0----0b--0---0---0----5b-------7--7--------|
A|---2---2---2---2--2/9----9b---9----9----9----4b--4---4---4----3b-------5--5--------|
E|---3---3---3---3--3/10---10b--10---10---10---5b--5---5---5-------------------------|

These next two you pretty much never lay of the whammy.

e|-----------------------------------------------------------------------------------|
B|---3---3---3---3--3/10---10---10---10---10---5---5---5---5-------------------------|
G|---0---0---0---0--0/0----0----0----0----0----0---0---0---0----5--5---5/7--7--------|
D|---0---0---0---0--0/0----0----0----0----0----0---0---0---0----5--5---5/7--7--------|
A|---2---2---2---2--2/9----9----9----9----9----4---4---4---4----3--3---3/5--5--------|
E|---3---3---3---3--3/10---10---10---10---10---5---5---5---5-------------------------|

e|-----------------------------------------------------------------------------------|
B|---3---3---3---3--3/10---10---10---10---10---5---5---5---5-------------------------|
G|---0---0---0---0--0/0----0----0----0----0----0---0---0---0----<5>b----<7>----------|
D|---0---0---0---0--0/0----0----0----0----0----0---0---0---0----<5>b----<7>----------|
A|---2---2---2---2--2/9----9----9----9----9----4---4---4---4-------------------------|
E|---3---3---3---3--3/10---10---10---10---10---5---5---5---5-------------------------|

Final Verse (4:49)
e|-----------------------------------------------------------------------------------|
B|-----------------------------------------------------------------------------------|
G|-----------------------------------------------------------------------------------|
D|----------------------------------5---7---5----------------------------------------|
A|-----2---2/---9---9\--4---4---3----------------------------------------------------|
E|---3---3--/10--10--\5---5----------------------------------------------------------| x3
Tap to rate this tab
# A B C D E F G H I J K L M N O P Q R S T U V W X Y Z