Song name
# A B C D E F G H I J K L M N O P Q R S T U V W X Y Z

Modest Mouse - I Came As A Rat tab

By:Modest Mouse
Song: I Came As A Rat
tabbed by chrtes


| /  slide up
| \  slide down
| h  hammer-on
| p  pull-off
| ~  vibrato
| +  harmonic
| x  Mute note



e|-------------------------------------------------------|
b|-------------------------------------------------------|
g|-------------------------------------------------------|
D|-------7-----------10-------------5-----------3--------|
A|-----7-----------10-------------5-----------3----------|
E|--5------5-----8-------8-----3------5----1-----3-------|


Second Guitar
e|-------------------------------------------------------------|
b|-------------------------------------------------------------|
g|---7b------7b----------7b----9b-------12b-----9b-----7b------|
D|-------------------------------------------------------------|
A|-------------------------------------------------------------|
E|-------------------------------------------------------------|




e|-----------------------------------------------------------|7x
b|-----------------------------------------------------------|
g|-----------------------------------------------------------|
D|--3---3------5--5x------10--10x-----5--5x-----3--3x--------|
A|--3---3------5--5x------10--10x-----5--5x-----3--3x--------|
E|--1---1------7--7x------8----8-x-----3--3x-----1--1x-------|



e|-------------------------------------------------------|
B|-------------------------------------------------------|
G|-9h10----9h10----7-------------------------------------|
D|----------------------10----9h10-----9h10----7---------|
A|------------------------------------------------10-----|
E|-------------------------------------------------------|



e|---------------------------------------------------------|
B|---------------------------------------------------------|
G|---------------------------------------------------------|
D|---------------------------------------------------------|
A|------7-----10-----7------9-9----------------------------|
E|-------------------------------------10--10-----8--------|




e|------------------------------------------------|
B|------------------------------------------------|
G|-9h10----9h10----7------------------7-----12~---|
D|------------------------10-----9----------------|
A|------------------------------------------------|
E|------------------------------------------------|



First guitar
e|-----------------------------------------------------------|
B|-----------------------------------------------------------|
G|-----------------------------------------------------------|
D|------------------------------------------------5----------|
A|---2-2-2-x-x-----2-2-2-x-x-----5-5-x-----7-7--------7------|
E|-----------------------------------------------------------|



e|----------------------------------------------------------|
B|----------------------------------------------------------|
G|----------------------------------------------------------|
D|-----------------------------------------2-2-2------------|
A|---2-2-2-x-x-----2-2-2-x-x-----5-5-x------------0---2-----|
E|----------------------------------------------------------|



second guitar

e|-------------------------------------------|
B|-------------------------------------------|
G|-----------9--9-7-9----9-9-9-7-9-7-9-------|
D|-------------------------------------------|
A|-------------------------------------------|
E|-------------------------------------------|


Thrid guitar

e|--------------------------------|
B|--------------------------------|
G|--------------------------------|
D|---9---11--12---------0---------|
A|---------------12--9-----7------|
E|--------------------------------|


Sometimes it can be really hard to hear whats going on in this song so go and listen to the song.
Tap to rate this tab
# A B C D E F G H I J K L M N O P Q R S T U V W X Y Z