Song name
# A B C D E F G H I J K L M N O P Q R S T U V W X Y Z

Modest Mouse - Custom Concern tab

Custom Concern By Modest Mouse the way Isaac plays it.





(/) Slide Up  (\) Slide Down  (h) Hammer On  (p) Pull Off  (b) Bend (r) Release (v) Vibrato
E|----------------------------------------------------------|
B|----------------------------------------------------------|
G|--------0------------------0--------0------------------0--|
D|-----------0h2--------0h2--------------0h2--------0h2-----|
A|--3--3----------3--3----------3--3----------3--3----------|
E|----------------------------------------------------------|



E|--------------------------------------------------------|
B|--------------------------------------------------------|
G|--------------------------------------------------------|
D|--------------------------------------------------------|
A|--------3--3--3--------3--3--3--------3--3--3--------3--|
E|--5--5-----------5--5-----------5--5-----------5--5-----|



E|-------------------------------------------------------------------------------------------|
B|-------------------------------------------------------------------------------------------|
G|-------------------------------------------------------------------------------------------|
D|-------------------------------------------------------------------------------------------|
A|--2h3p2-----2h3p2-----2h3p2-----2h3p2-----2h3p2-----2h3p2-----2h3p2-----2h3p2-----3--3-----|
E|---------3---------3---------3---------3---------3---------3---------3---------3-----------|



E|-------------------------------------------------------|
B|-------------------------------------------------------|
G|-------------------------------------------------------|
D|-------------------------------------------------------|
A|--------0h2--3--------0h2--3--------0h2--3--3/5--3--2--|
E|--1--1----------1--1----------1--1---------------------|



E|--------------------------------------------------------------------------------------------|
B|--------------------------------------------------------------------------------------------|
G|-------------5/7--5\4--5--4-----------------------------------------------------------------|
D|-----2--3/5------------------5--3--2--3--2----------------5/7--5\4--5--4--------------------|
A|--3-----------------------------------------3-----2--3/5------------------5--3--2--3--2-----|
E|-----------------------------------------------3-----------------------------------------3--|



E|-------------------------------------------------------------------|
B|-------------------------------------------------------------------|
G|-------------------------------------------------------------------|
D|-------------------------------------------------------------------|
A|------------------------------8--10--12--14--15--14--12--10--8--7--|
E|--3--5--7--8--10--12--13--15---------------------------------------|
Tap to rate this tab
# A B C D E F G H I J K L M N O P Q R S T U V W X Y Z