Song name
# A B C D E F G H I J K L M N O P Q R S T U V W X Y Z

Modest Mouse - Perfect Disguise tab

-------------------------------------------------------------------------------
			     PERFECT DISGUISE - Modest Mouse
-------------------------------------------------------------------------------
Tabbed by: Leah Quah
Email: quahxinyi@yahoo.com

Tuning: Normal.

I added part of the bass part in brackets, although I'm not sure if it's transcribed 
Some of the harmonies are off... but then again, it's Modest Mouse. You can move the bass 
up a tone (ie 2 frets) and try it that way, too.

Intro:
e|-0-----0-----------|
B|---1h2---2-0-------|
G|--------------2----|
D|-------------------| (x2)
A|-------------------|
E|-------------------|

e|-----------------------------------|
B|--20---0--20---0-0-0---0-----------|
G|------2------2------2---2----------|
D|-4----------(2)---2---2------------|
A|(4)-----(4)---(0)(2)--(2)----------|
E|-----------------------(0)---------|

e|-----------------------------------|
B|--20---0-20---0--0----------0------|
G|------2-----2------2---------2-----|
D|-4---------(2)---------------------|
A|(4)-----(4)--(0)--(2)--------------|
E|-----------------------------(0)---|


e|-----------------------------------|
B|--20---0-20---0--0-----------------|
G|------2-----2------2---------------|
D|-4---------(2)---------------------|
A|(4)-----(4)--(0)--(2)--------------|
E|-----------------------------------|
__________

The rest of the song has what's basically an F# -> E progression:

e|------------------|
B|------------------|
G|-----4-------2----|
D|-----4-------2----|
A|------------------|
E|------------------|
Tap to rate this tab
# A B C D E F G H I J K L M N O P Q R S T U V W X Y Z