Guitaretab - guitar tabs
Song name
# A B C D E F G H I J K L M N O P Q R S T U V W X Y Z

Modest Mouse - Never Ending Math Equation tab

tabbed by 
bobby-mutha-grabbin-tabasco



           intro
-----------------------------------|
------5---x-x----------------------|
------5---x-x---------4br0---------|4x
-5-5------x-x---5-5----------------|
-7-7------------x-x----------------|
----------------3-3----------------|

             verse

I'm  the s------ame,                as I was when I was 6 years old
-------------------------'        ---------------------------------'
------5------------------'        -----5---------------------------'
------5-x-x------4|br-0--'        -----5-------------4|br0---------'
-5-5----x-x--5-5---------'        -5--5---x-x--5--5----------------'
-7-7---------x-x---------'        -7--7---x-x--x--x----------------'
-------------3-3---------'        ------------3--3-----------------'

And oh my God I feel so damn old,  I don't really feel anything 
-------------------------'        ---------------------------------'
------5------------------'        -----5---------------------------'
------5-x-x------4|br-0--'        -----5-------------4|br0---------'
-5-5----x-x--5-5---------'        -5--5---x-x--5--5----------------'
-7-7---------x-x---------'        -7--7---x-x--x--x----------------'
-------------3-3---------'        ------------3--3-----------------'



On a pl----ane,                    I can see the tiny lights below.
-------------------------'        ---------------------------------'
------5------------------'        -----5---------------------------'
------5-x-x------4|br-0--'        -----5-------------4|br0---------'
-5-5----x-x--5-5---------'        -5--5---x-x--5--5----------------'
-7-7---------x-x---------'        -7--7---x-x--x--x----------------'
-------------3-3---------'        ------------3--3-----------------'

and oh my God, they look so alone,   Do they really feel anything?
-------------------------'          ---------------------------------'
------5------------------'          -----5---------------------------'
------5-x-x------4|br-0--'          -----5-------------4|br0---------'
-5-5----x-x--5-5---------'          -5--5---x-x--5--5----------------'
-7-7---------x-x---------'          -7--7---x-x--x--x----------------'
-------------3-3---------'          ------------3--3-----------------'
Oh my Gooooooood,                   I've gotta gotta gotta gotta move on
-------------------------'          ---------------------------------'
------5------------------'          -----5---------------------------'
------5-x-x------4|br-0--'          -----5-------------4|br0---------'
-5-5----x-x--5-5---------'          -5--5---x-x--5--5----------------'
-7-7---------x-x---------'          -7--7---x-x--x--x----------------'
-------------3-3---------'          ------------3--3-----------------'

Where do you move when what you're moving from,
-------------------------'          
------5------------------'          
------5-x-x------4|br-0--'         
-5-5----x-x--5-5---------'        
-7-7---------x-x---------'        
-------------3-3---------'         

               |is yourself|           |is yourself 
---------------|-----------|-----------|------------'
------5---x-x--|-----------|------5----|------------'
------5---x-x--|-------4br0|------5-x-x|-----4|br0--'
-5-5------x-x--|-5-5-------|---5-5--x-x|-5-5--------'
-7-7-----------|-x-x-------|---7-7-----|-x-x--------'
---------------|-3-3-------|-----------|-3-3--------'
[ Tab from: http://www.guitaretab.com/m/modest-mouse/45843.html ]
------------------------|
------------------------|
------------------------| 2x
---5--------------------| 
-7---7--5br---5--10-9---|
------------3-----------| 
             
               
          The universe works on a math equation
            ------------------------|
            ------------------------|
            ------------------------|
            ---5--------------------| 
            -7---7--5br---5--10-9---|
            ------------3-----------|   


   that never even ever really ends in the end
       ------------------------|
       ------------------------|
       ------------------------|
       ---5--------------------| 
       -7---7--5br---5--10-9---|
       ------------3-----------|  
i'm sure you get the point........
<><><><><><><><><><><><><><><><><><><><><><><><><><><><><><><>
Infinity spirals out of creation
We're on the tip of its tongue, and it is saying
We ainít sure where you stand
You ainít machines and you ainít land
And the plants and the animals, they are linked
And the plants and the animals eat each other


THEN END CHORUS LIKE IT STARTED WITH.....
------------------------|
------------------------|
------------------------| 2x
---5--------------------|  
-7---7--5br---5--10-9---|
------------3-----------| 
<><><><><><><><><><><><><><><<><><><><><><><><><><><><><><><><><>

*then repeat verse and chorus*


after you the second time you end it with......

Oh|   my| God| and| oh| my cat
--|-----|----|----|---|----------'
--|-----|----|----|---|----------'
--|-----|----|----|---|----------'
--|---5-|----|-5--|---|---5------'
-7|---5-|-7--|-5--|7--|-----7----'
-0|---0-|-0--|-0--|0--|----------'

I   told  my  Dad  what  I| need|
--|-----|----|----|---|---|-----|------------------'
--|-----|----|----|---|---|-----|------------------'
--|-----|----|----|---|---|-----|------------------'
-0|-----|-5--|----|5--|---|-5---|---------------0--'
-0|---7-|-5--|-7--|5--|-7-|-5---|---------7--5--2--'
--|---0-|-0--|-0--|0--|-0-|-0---|---7--5--------3--'

Well   I   know  what  I  have   and   want
----|-----|-----|----|---|-----|-----|----------'
----|-----|-----|----|---|-----|-----|----------'
----|-----|-----|----|---|-----|-----|----------'
-0--|-----|-5---|----|5--|-----|-5---|-5--------'
-0--|---7-|-5---|-7--|5--|-7---|-5---|----7-----'
----|---0-|-0---|-0--|0--|-0---|-0---|----------'

But  I   don't  know   what  I  need
---|----|-----|------|-----|---|-----|------------------'
---|----|-----|------|-----|---|-----|------------------'
---|----|-----|------|-----|---|-----|------------------'
-0-|----|-5---|------|5----|---|-5---|---------------0--'
-0-|-7--|-5---|-7----|5----|-7-|-5---|---------7--5--2--'
---|-0--|-0---|-0----|0----|-0-|-0---|---7--5--------3--'


Well, he  said   he  said   he   said  he   said
----|----|-----|----|-----|----|-----|----|---------'
----|----|-----|----|-----|----|-----|----|---------'
----|----|-----|----|-----|----|-----|----|---------'
-0--|----|-5---|----|5----|----|-5---|----|-5-------'
-0--|-7--|-5---|-7--|5----|-7--|-5---|-7--|----7----'
----|-0--|-0---|-0--|0----|-0--|-0---|-0--|---------'

"Where  we're   going  I'm  dead."
------|-------|------|----|-----|  
------|-------|------|----|-----|
------|-------|------|----|-----|  
-0----|-------|-5----|----|5----|  
-0----|-7-----|-5----|-7--|5----|  
------|-0-----|-0----|-0--|0----|  

---|----|-----|------|-----|---|-----|------------------'
---|----|-----|------|-----|---|-----|------------------'
---|----|-----|------|-----|---|-----|------------------'
-0-|----|-5---|------|5----|---|-5---|---------------0--'
-0-|-7--|-5---|-7----|5----|-7-|-5---|---------7--5--2--'
---|-0--|-0---|-0----|0----|-0-|-0---|---7--5--------3--'

----|----|-----|----|-----|----|-----|----|---------'
----|----|-----|----|-----|----|-----|----|---------'
----|----|-----|----|-----|----|-----|----|---------'
-0--|----|-5---|----|5----|----|-5---|----|-5-------'
-0--|-7--|-5---|-7--|5----|-7--|-5---|-7--|----7----'
----|-0--|-0---|-0--|0----|-0--|-0---|-0--|---------'

if you have turn-tables now would be a good tiime to start scratching them!
Related for Never Ending Math Equation tab