Guitaretab - guitar tabs
Song name
# A B C D E F G H I J K L M N O P Q R S T U V W X Y Z

Modest Mouse - Dark Center Of The Universe tab

Intro
e|-0---0---0---0---0---0---0---0---0---0---0---0---0---2p0-2p0-2p0-2p0-2p0-2p0-|
B|---5---5---5---5---3---3---3---3---2---2---2---2---0-0---0---0---0---0---0---|
G|-----------------------------------------------------------------------------|
D|-----------------------------------------------------------------------------|
A|-----------------------------------------------------------------------------|
E|-----------------------------------------------------------------------------|

Verse
e|-0---7---0---7---0---5---0---5---0---4---0---4---0---2p0-2p0-2p0-2p0-2p0-2p0-|
B|---5---5---5---5---3---3---3---3---2---2---2---2---0-0---0---0---0---0---0---|
G|-----------------------------------------------------------------------------|
D|-----------------------------------------------------------------------------|
A|-----------------------------------------------------------------------------|
E|-----------------------------------------------------------------------------|
[ Tab from: http://www.guitaretab.com/m/modest-mouse/47286.html ]
Chorus
e|-0---7p5p0----0---7p5p0----0---5p3p0----0---5p3p0----0---4p2p0----0-----|
B|---5-------5----5-------5----3-------3----3-------3----2-------2----2---|
G|------------------------------------------------------------------------|
D|------------------------------------------------------------------------|
A|------------------------------------------------------------------------|
E|------------------------------------------------------------------------|

e|-----4p2p0-----0---4p2p0------0---0-----0---0-|
B|-2-2-------2-----2-------2--0---0---0-0---0---|
G|----------------------------------------------|
D|----------------------------------------------|
A|----------------------------------------------|
E|----------------------------------------------|

Muted Bit - Strum Chords
[Note: Itís not needed to press hard enough to distinguish the chords, only lightly so 
chords are slightly heard]
e|--------------|
B|--------------|
G|--------------|
D|--7--5--4--2--|
A|--7--5--4--2--|
E|--5--3--2--0--|
Pm..............
Related for Dark Center Of The Universe tab