Song name
# A B C D E F G H I J K L M N O P Q R S T U V W X Y Z

Modest Mouse - Shit Luck tab

Shit Luck  -  Modest Mouse
Lonesome Crowded West
Tabbed by Hungryman

Standard Tuning

Riff 1
e|-----------------------------------|
B|-----------------------------------|
G|-----------------------------------|
D|----------7h9----------------------|
A|------7h9-----7h9------------------|
E|--7h9-----------------7-7-7-7------|

Riff 2
e|--------------------------------------------------|
B|---------------------------5b----5b----5b----5b---|
G|---5b----5b----5b----5b---------------------------|
D|--------------------------------------------------|
A|-4-----4-----4-----4------------------------------|
E|-------------------------5-----5-----5-----5------|

  or

if your using a capo which i found to be easier

Riff 1
e|-----------------------------------|
B|-----------------------------------|
G|-----------------------------------|
D|----------0h2----------------------|
A|------0h2----0h2-------------------|
E|--0h2-----------------0-0-0-0------|

Riff 2
e|--------------------------------------------------|
B|---------------------------2b----2b----2b----2b---|
G|---2b----2b----2b----2b---0-----0-----0-----0-----|
D|--0-----0-----0-----0-----------------------------|
A|--------------------------------------------------|
E|--------------------------------------------------|

and there you go its pretty easy its just getting the speed of the song down thats hard
Tap to rate this tab
# A B C D E F G H I J K L M N O P Q R S T U V W X Y Z