Song name
# A B C D E F G H I J K L M N O P Q R S T U V W X Y Z

Modest Mouse - Willful Suspension Of Disbelief tab

-------------------------------------------------------------------------------
               WILLFUL SUSPENSION OF DISBELIEF - Modest Mouse
-------------------------------------------------------------------------------
Tabbed by: Eyes Shut Wide
Email: pooisdrew@hotmail.com

The other tab for this is great, but they got the main part kinda wrong...
heres how I think it sounds.

Tuning: Standard (EADGBe)

main riff:
e|--------4---------------------------------------------------|\
B|------------------5---------4-------------------------------| \
G|--------------------------------------6---------------------|  \
D|---6---------6---------6---------6----5----5----------------|   \
A|------------------------------------------------7-----------|    \
E|------------------------------------------------------------|     \
                                                                     \ repeat
                                                                     /
e|--------4---------------------------------------------------|     /
B|------------------5---------4---------7----------4h5--------|    /
G|------------------------------------------------------------|   /
D|---6---------6---------6---------6---------6----------------|  /
A|------------------------------------------------------------| /
E|------------------------------------------------------------|/


| /  slide up
| \  slide down
| h  hammer-on
| p  pull-off
| ~  vibrato
| +  harmonic
| x  Mute note

Once you get the fingering right, its really easy

-Enjoy!
===============================================================================
Tap to rate this tab
# A B C D E F G H I J K L M N O P Q R S T U V W X Y Z